Song name
# A B C D E F G H I J K L M N O P Q R S T U V W X Y Z

Current Swell - Eye For An Eye tab

This is my first tab, sounds good to me.

e----------------1-1-1-1-x-1-------------------6-6-6-6-x-6-------|
b----------------1-1-1-1-x-1-------------------6-6-6-6-x-6-------|
g-3--------------2-2-2-2-x-2-------------------7-7-7-7-x-7-------|
d---3-3h5p3-0----3-3-3-3-x-3------3-3h5p3-0----8-8-8-8-x-8-------|  x2
a-------------3--3-3-3-3-x-3--3h5-----------3--8-8-8-8-x-8-------|
e----------------1-1-1-1-x-1-------------------6-6-6-6-x-6-------|

e------------------1-1-1-1-x-1-------------------6-6-6-6-x-6-----|
b------------------1-1-1-1-x-1-------------------6-6-6-6-x-6-----|
g-5-3--------------2-2-2-2-x-2-------------------7-7-7-7-x-7-----|
d-----5-3-5-3------3-3-3-3-x-3------3-3h5p3-0----8-8-8-8-x-8-----|
a-------------5-3--3-3-3-3-x-3--3h5-----------3--8-8-8-8-x-8-----|
e------------------1-1-1-1-x-1-------------------6-6-6-6-x-6-----|

e--------------------1-1-1-1-x-1-------------------6-6-6-6-x-6---|
b--------------------1-1-1-1-x-1-------------------6-6-6-6-x-6---|
g-5-3-5/7-5-5-3------2-2-2-2-x-2-------------------7-7-7-7-x-7---|
d---------------5-3--3-3-3-3-x-3------3-3h5p3-0----8-8-8-8-x-8---|
a--------------------3-3-3-3-x-3--3h5-----------3--8-8-8-8-x-8---|
e--------------------1-1-1-1-x-1-------------------6-6-6-6-x-6---|
Tap to rate this tab
# A B C D E F G H I J K L M N O P Q R S T U V W X Y Z