Song name
# A B C D E F G H I J K L M N O P Q R S T U V W X Y Z

Current Swell - Chestermans Valley tab

Got most of it. Please post comments to edit it.

-14-14--12-14-12------------------------------------------------------|
----------------14--12-14--14-12------12-14-12----12-----12-14-12-----|
---------------------------------14-------------11~~11------------14--|
----------------------------------------------------------------------|
----------------------------------------------------------------------|
----------------------------------------------------------------------|

------------------------------------------------------------------|
--12-14-12----10---------10------10---12p10-----12p10----10-------|
-------------9~~9----9h11----9h11-----------11-------11-----------|
------------------------------------------------------------------|
------------------------------------------------------------------|
------------------------------------------------------------------|

-------12------12---------------------------------------------------|
--12s14-----14---14s12--10---12-10----10-12-10----10----10-12-10----|
----------------------------------11------------11~~11-----------11-|
--------------------------------------------------------------------|
--------------------------------------------------------------------|
--------------------------------------------------------------------|

--------------------------------------------12--14p12-----12----|
-10-12-10--10-------10--12p10-----10---12h14----------------14--|
----------9~~9--9h11----------11--------------------------------|
----------------------------------------------------------------|
----------------------------------------------------------------|
----------------------------------------------------------------|

-14p12-12--14p12-12--14p12-14p12-------------------------------|
---------------------------------14-12~~---14p12-12--14p12-12--|
---------------------------------------------------------------|
---------------------------------------------------------------|
---------------------------------------------------------------|
---------------------------------------------------------------|

-----------------------------------------------------------------|
--14p12--14p12----------14p12-12--14p12-12--14p12--14p12---------|
---------------14-11~~----------------------------------14-11-9--|
-----------------------------------------------------------------|
-----------------------------------------------------------------|
-----------------------------------------------------------------|

---------------------------------------------------------------------|
-------10-------10--12p10----12p10----10-----------------------------|
---9h11-----9h11---------11--------11-------11-9-11-9----11--9-------|
------------------------------------------------------11-------11-9--|
---------------------------------------------------------------------|
---------------------------------------------------------------------|

-----------------------------------------------------------------------|
-----------------------------------------------------------------------|
-----------------------------------------------------------------------|
-11---11-9----9-11---------9-11-9-----9-11-9--------------9--11p9----9-|
----------12------9-12-9----------12--------9-12-9---9h12--------12----|
-----------------------------------------------------------------------|

-----------------------------------------------------------------------|
-----------------------------------------------------------------------|
---------9-11p9--------------------------------------------------------|
-9-9h11--------11------------------------------------------------------|
-----------------------------------------------------------------------|
-----------------------------------------------------------------------|

not really sure how it goes after this.
Will post it up if i figure it out.
Tap to rate this tab
 
# A B C D E F G H I J K L M N O P Q R S T U V W X Y Z