Song name
# A B C D E F G H I J K L M N O P Q R S T U V W X Y Z

Cursed - Head Of The Baptist tab

Head Of The Baptist
Cursed
http://yourfuckingfuneral.blogspot.com/
Two

by:theorganicboy
hxchaos@hotmail.com


Intro:
d|---------------|
a|---------------|
f|---------------|
c|-----3--3--3---|
g|---0px--x--x---|
c|---0p3--3--3---|


d|----------------------------------------|
a|----------------------------------------|
f|----------------------------------------|
c|-----3---3/6--6-----3/6--6-----3-6--6---|
g|---0px-0px-x--x---0px-x--x---0px-x--x---|
c|---0p3-0p3/6--6---0p3/6--6---0p3/6--6---|

d|----------------------------------------|
a|----------------------------------------|
f|----------------------------------------|
c|-----3---3/9--9-----3/9--9-----3/9--9---|
g|---0px-0px-x--x---0px-x--x---0px-x--x---|
c|---0p3-0p3/9--9---0p3/9--9---0p3/9--9---|

d|----------------------------------------|
a|----------------------------------------|
f|----------------------------------------|
c|-----3---3--3-3-----3--3-3-----3--3-3---|
g|---0px-0px--x-x---0px--x-x---0px--x-x---|
c|---0p3-0p3--3-3---0p3--3-3---0p3--3-3---|

Pre-verse:
d|-------------------------------------------------------------------|
a|-------------------------------------------------------------------|
f|-------------------------------------------------------------------|
c|-----3-33----3-33----3-33---3-33----6-66----6-66----6-66----6-66---|
g|---0px-xx--0px-xx--0px-xx-0px-xx--0px-xx--0px-xx--0px-xx--0px-xx---|
c|---0p3-33--0p3-33--0p3-33-0p3-33--0p6-66--0p6-66--0p6-66--0p6-66---|

Verse:
d|-------------------------------------------|
a|-------------------------------------------|
f|-------------------------------------------|
c|-------0--0-----0--0-----0--0-----0--0-----|
g|---0---0--0-0---0--0-0---0--0-0---0--0-0---|
c|---0---0--0-0---0--0-0---0--0-0---0--0-0---|
     .        .        .        .        .

d|----------------------------------------------------------|
a|----------------------------------------------------------|
f|----------------------------------------------------------|
c|----------------------------------------------------------|
g|-----0-------------0-------------0------------------------|
c|---0-0--0-7-6--6-0-0--0-3-3--3-0-0--0-7-6--66-3-5-6-5-3---|
     .    .        .    .        .    .

d|----------------------------------------------------------|
a|----------------------------------------------------------|
f|----------------------------------------------------------|
c|----------------------------------------------------------|
g|----------------------------------------------------------|
c|---0-0--0-7-7--7-0-0--0-3-3--3-0-0--0-7-7--76-3-5-6-5-3---|


d|---------------------------------------|
a|----------------------0----------------|
f|----------------------x------4---------|
c|---0------------------6------3---------|
g|---0------------------6------3---------|
c|---0------7-5-7-8-7-5-6------3---------|
-
d|--------------------------------------------------|
a|--------------------------------------------------|
f|--------------------------------------------------|
c|-----3-3-3------3-3-3------3-3/-6-6-6-6-6-6-6-6---|
g|---0px-x-x----0px-x-x----0px-x--x-x-x-x-x-x-x-x---|
c|---0p3-3-3----0p3-3-3----0p3-3/-6-6-6-6-6-6-6-6---|

d|---------------------------------------------------------|
a|---------------------------------------------------------|
f|---------------------------------------------------------|
c|---0-0-0-0-0-0-0-0-0-0-0-0-0-0-0-0-7-7-7-0-3-3-3-3-3-3-3-|
g|---0-0-0-0-0-0-0-0-0-0-0-0-0-0-0-0-x-x-x-0-x-x-x-x-x-x-x-|
c|---0-0-0-0-0-0-0-0-0-0-0-0-0-0-0-0-7-7-7-0-3-3-3-3-3-3-3-|

d|--------------------------------------------|
a|--------------------------------------------|
f|--------------------------------------------|
c|-----3-3-3-----3-3-----3/-6-6-6-6-6-6-6-6---|
g|---0px-x-x-----x-x-----x--x-x-x-x-x-x-x-x---|
c|---0p3-3-3-----3-3-----3/-6-6-6-6-6-6-6-6---|

d|---------------------------------------------------------|
a|---------------------------------------------------------|
f|---------------------------------------------------------|
c|---0-0-0-0-0-0-0-0-0-0-0-0-0-0-0-0-7-7-7-0-3-3-3-3-3-3-3-|
g|---0-0-0-0-0-0-0-0-0-0-0-0-0-0-0-0-x-x-x-0-x-x-x-x-x-x-x-|
c|---0-0-0-0-0-0-0-0-0-0-0-0-0-0-0-0-7-7-7-0-3-3-3-3-3-3-3-|


Return to the intro riff

End on:
d|---------------------------------------|
a|---------------------------------------|
f|---------------------------------------|
c|-------9-9-----3-9-9-----3-9-9-----3---|
g|---0px-x-x---0px-x-x---0px-x-x---0px---|
c|---0p3-9-9---0p3-9-9---0p3-9-9---0p3---|
Tap to rate this tab
# A B C D E F G H I J K L M N O P Q R S T U V W X Y Z