Song name
# A B C D E F G H I J K L M N O P Q R S T U V W X Y Z

Cursed - Reparations tab

Reparations
Cursed
Two

hxchaos(at)hotmail(dot)com


main riff
d|---0--1--0-----0^-0----0^---|
a|---3--3--3-----2^-2----2^---|
f|---2--2--2-----3^------3^---|
c|---0--0--0---3-3^----3-3^---|
g|-------------1-1^----1-1^---|
c|----------------------------|

d|------------------------------------------|
a|---3-3-33\222-2222/333-33-----------------|
f|---2-2-22\111-1111/222-22-----------------|
c|---0-0-000000-00000000-00---8--8--8--p0---|
g|---0--------0--------0------x--x--x---0---|
c|---0--------0--------0------8--8--8--p0---|

riff 2
d|----------------0^-0----0^---|
a|----------------2^-2----2^---|
f|-------2---2----3^------3^---|
c|---0---2---2--3-3^----3-3^---|
g|---0---0---0--1-1^----1-1^---|
c|---0-------------------------|


riff 3
  (1->4, 6)
d|------------------------------------------------------------------------|
a|------------------------------------------------------------------------|
f|------------------------------------------------------------------------|
c|------------------------------------------------------------------------|
g|------------------------------------------------------------------------|
c|---0-1212p0-12p--0-12p-12p-0-10-12-12b---0-1212p0-12p--0-12p--666-555---|

  (5)
d|------------------------------------------------------------------|
a|------------------------------------------------------------------|
f|------------------------------------------------------------------|
c|------------------------------------------------------------------|
g|------------------------------------------------------------------|
c|---00-12-10h12-12p-12p-0-10-12-12p---00-12-10ph12-12b--666--555---|

  (7, 8)
d|-------------------------------------------------------|
a|-------------------------------------------------------|
f|-------------------------------------------------------|
c|-------------------------------------------------------|
g|-------------------------------------------------------|
c|---00-7p-7p-0-7p-7p-0-5-7-7b---00-7p-7p-0-7p-666-555---|

riff 4
d|----------------0--0---|
a|----------------2--2---|
f|-----222222-----3--3---|
c|-----222222--33-3--3---|
g|---0-000000--11-1--1---|
c|---0-000000------------|

riff 5
d|-----------------------------------------|
a|-----------------------------------------|
f|-----------------------------------------|
c|---000000000000000000000000--------------|
g|---000000000000000000000000--------------|
c|---000000000000000000000000---666--555---|

riff 3
  (1, 2)
d|------------------------------------------------------------------------|
a|------------------------------------------------------------------------|
f|------------------------------------------------------------------------|
c|------------------------------------------------------------------------|
g|------------------------------------------------------------------------|
c|---0-1212p0-12p--0-12p-12p-0-10-12-12b---0-1212p0-12p--0-12p--666-555---|

  (3)
d|------------------------------------------------------------------|
a|------------------------------------------------------------------|
f|------------------------------------------------------------------|
c|------------------------------------------------------------------|
g|------------------------------------------------------------------|
c|---00-12-10h12-12p-12p-0-10-12-12p---00-12-10ph12-12b--666--555---|

  (4)
d|---------------------------------------------------------------------|
a|---------------------------------------------------------------------|
f|---------------------------------------------------------------------|
c|---------------------------------------------------------------------|
g|---------------------------------------------------------------------|
c|---0-1212p0-12p--0-12p-12p-0-5-7-7b---0-1212p0-12p--0-12p--666-555---|
Tap to rate this tab
 
# A B C D E F G H I J K L M N O P Q R S T U V W X Y Z