Song name
# A B C D E F G H I J K L M N O P Q R S T U V W X Y Z

Cursed - The Void tab

The Void
Cursed
Two

hxchaos(at)hotmail(dot)com

intro
d|--------------------|
a|--------------------|
f|--------------------|
c|--------------------|
g|---00000000000000---|
c|---00000000000000---|

d|----------------------------------------------------|
a|----------------------------------------------------|
f|----------------------------------------------------|
c|----------------------------------------------------|
g|---0000000000000000000000000000000000000000000000---|
c|---0000000000000000000000000000000000000000000000---|

  (x2)
d|----------------------------------------------------|
a|----------------------------------------------------|
f|-----------------7-6----------7-6-10-9--------------|
c|-----------------7-6----------7-6-10-9--------------|
g|---0000000000000-5-4-00000000-5-4--8-7-0000000------|
c|---0000000000000-----00000000----------0000000-6b---|

  (x3)
d|----------------------------------------------------|
a|----------------------------------------------------|
f|--------------------7-6----------7-6-10-9-----------|
c|--------------------7-6----------7-6-10-9-----------|
g|------0000000000000-5-4-00000000-5-4--8-7-0000000---|
c|---6b-0000000000000-----00000000----------0000000---|

transition
d|-------------------------------|
a|-------------------------------|
f|-------------------------------|
c|-------------------------------|
g|-------------------------------|
c|---6b-0-3h-6h-0-3h-3/666666b---|

riff 1
two guitars on the album, at least, are playing different parts, you can play this:
d|----------------------------------------------------------------------|
a|----------------------------------------------------------------------|
f|---7-7777777-7777776-6666666-666666-7-7777777-------6-6666666-666666--|
c|---0-0000000-0000006-6666666-666666-0-0000000-------6-6666666-666666--|
g|---0-0000000-000000x-xxxxxxx-xxxxxx-0-0000000-057875x-xxxxxxx-xxxxxx--|
c|---0-0000000-0000006-6666666-666666-0-0000000-0000006-6666666-666666--|

riff 2
d|------------------------------------------------------|
a|------------------------------------------------------|
f|------------------------------------------------------|
c|-----3-------------2--------------3---------------2---|
g|---0-x-----------0-x------------0-x-------------0-x---|
c|---0h3-----------0h2------------0h3-------------0h2---|

riff 3
d|-------------------------------------------------|
a|-------------------------------------------------|
f|-------0-------0---0----------0-------0---0------|
c|-----3-------3---2----------3-------3---2--------|
g|---0-x-------x---x--------0-x-------x---x--------|
c|---0h3-------3---2--------0h3-------3---2--------|

bridge
  gtr.1                              gtr.2
d|----------------------------------|--------------------------------|
a|----------------------------------|---10-------9-------9-------9---|
f|---10------10------10--------10---|---10------10------10------10---|
c|----------------------------------|--------------------------------|
g|----8-------8-------8---------8---|--------------------------------|
c|----------------------------------|--------------------------------|
  but you can play it like this:
d|-------------------------------------------------------------------------|
a|---10------9-----10------9-----10------9-----10------9---9---9--9--9-9---|
f|---10-----10-----10-----10-----10-----10-----10-----10--10--10-10-1010---|
c|-------------------------------------------------------------------------|
g|----8------8------8------8------8------8------8------8---8---8--8--8-8---|
c|-------------------------------------------------------------------------|

riff 4
d|-----------------------------------------------------|
a|-----------------------------------------------------|
f|-----------------------------------------------------|
c|---3-33-3h6-0-3h6-0-3h6-6---3-33-3h6-0-3h6-0-3h6-6---|
g|---3-33-3h6-0-3h6-0-3h6-6---3-33-3h6-0-3h6-0-3h6-6---|
c|---3-33-3h6-0-3h6-0-3h6-6---3-33-3h6-0-3h6-0-3h6-6---|

d|-----------------------------------------------------|
a|------------------------------------00000------------|
f|------------------------------------44443------------|
c|---3-33-3h6-0-3h6-0-3h6-6-2-222222-------------------|
g|---3-33-3h6-0-3h6-0-3h6-6-2-222222-------------------|
c|---3-33-3h6-0-3h6-0-3h6-6-2-222222-------------------|

riff 5
d|-------------------------------0---0---|
a|-------------------------------5b--5b--|
f|---3/66666-3/66666\5\3\2-2222----------|
c|---3/66666-3/66666\5\3\2-2222----------|
g|---1/44444-1/44444\3\1\0-0000----------|
c|---------------------------------------|

d|---------------------------------------|
a|---------------------------------------|
f|---3/66666-3/66666\5\3-----------------|
c|---3/66666-3/66666\5\3-2---------------|
g|---1/44444-1/44444\3\1-2---------------|
c|-----------------------2---------------|

repeat riff 2 / riff 3 / bridge / riff 4 / riff 5

riff 2 once again, then finish with:
d|---------------------------------------------------|
a|---------------------------------------------------|
f|---------------------------------------------------|
c|---3--------2------3------2------3------2------2---|
g|---x------0-x------x------x------x------x------x---|
c|---3------0h2------3------2------3------2------2---|
Tap to rate this tab
 
# A B C D E F G H I J K L M N O P Q R S T U V W X Y Z