Song name
# A B C D E F G H I J K L M N O P Q R S T U V W X Y Z

Cursive - The Recluse Acoustic tab

this first part is the main riff you hear in the into of the song as well as other 
parts, played at 0:00, 1:01, 2:01, break in guitar part..starts in at 2:30

e------------------------10-----------------------------------|
B--10h11-10 -13-11-10-11-----11--10h11-10 -13-11---- 11-10-11-|
G-----------------------------------------------10------------|
D-------------------------------------------------------------|
A-------------------------------------------------------------|
E-------------------------------------------------------------|


this is what you strum during the verses. starts at 0:31, 0:50, 1:51, ...

e------------------------*3---------|
B-----3--------1--------3--------1--|
G---0--------2--------0--------2----| ...repeat and what not...
D-1--------0--------0--------0------|
A-----------------------------------|     *...dont play this e3 till right before the riff starts 
E-----------------------------------|     up. this is only played at the end! 


bass riffs played on a guitar:

#1.) played at 0:40, 1:41
e-----------------------------|    
B-----------------------------|
G-----------------------------|
D-1p0--0h1-3-0----------------|
A---------------1----3h5p3---0|
E------------------3----------|



#2.) played at the end, starts at 2:50

e--------------------|
B--------------------|
G--------------------|
D-3h5---0---0--------|
A-----6---1---0-1----|
E------------------3-|
Tap to rate this tab
 
# A B C D E F G H I J K L M N O P Q R S T U V W X Y Z