Song name
# A B C D E F G H I J K L M N O P Q R S T U V W X Y Z

Cursive - Dorothy Dreams Of Tornadoes tab

Intro
|-(x)-(x)-(x)-(x)-(x)-|-(x)-(x)--|
|-(x)-(x)-(x)-(x)-(x)-|-(x)-(x)--|
|-(x)-(x)-(x)-(x)-(x)-|-(x)-(x)--|
|-(x)-(x)-(x)-(x)-(x)-|-(x)-(x)--|
|-(x)-(x)-(x)-(x)-(x)-|-(x)-(x)--|
|-(x)-(x)-(x)-(x)-(x)-|-(x)-(x)--|

You said we’d leave next year…
|-------------------|-(x)-(x)-(x)--(x)-(x)-(x)--|
|-------------------|-(x)-(x)-(x)--(x)-(x)-(x)--|
|-------------------|-(x)-(x)-(x)--(x)-(x)-(x)--|
|-7--7--7--7--2-2/3-|-(x)-(x)-(x)--(x)-(x)-(x)--|
|-7--7--7--7--2-2/3-|-(x)-(x)-(x)--(x)-(x)-(x)--|
|-7--7--7--7--2-2/3-|-(x)-(x)-(x)--(x)-(x)-(x)--|

And those nights…
|---------------------------------------------------------|
|---------------------------------------------------------|
|---------------------------------------------------------|
|-5---7---3---2-2/3/2--5---7---3---2-2/3/2--2-2/3/2/7/2/3-|
|-5---7---3---2-2/3/2--5---7---3---2-2/3/2--2-2/3/2/7/2/3-|
|-5---7---3---2-2/3/2--5---7---3---2-2/3/2--2-2/3/2/7/2/3-|

Break
|-------------------|-(x)-(x)-(x)--(x)-(x)-(x)--|
|-------------------|-(x)-(x)-(x)--(x)-(x)-(x)--|
|-------------------|-(x)-(x)-(x)--(x)-(x)-(x)--|
|-7--7--7--7--2-2/3-|-(x)-(x)-(x)--(x)-(x)-(x)--|
|-7--7--7--7--2-2/3-|-(x)-(x)-(x)--(x)-(x)-(x)--|
|-7--7--7--7--2-2/3-|-(x)-(x)-(x)--(x)-(x)-(x)--|

Let a tornado tear through…
|-------------------|--------------------------|
|-------------------|--------------------------|
|-------------------|--------------------------|
|-9--9--9--9--4-4/5-|-7--2--3------5--5--0-0h1-|
|-9--9--9--9--4-4/5-|-7--2--3-x24--5--5--0-0h1-|
|-9--9--9--9--4-4/5-|-7--2--3------5--5--0-0h1-|

And let the rain pour in…
|-------------------|-(x)-(x)-(x)--(x)-(x)-(x)--|
|-------------------|-(x)-(x)-(x)--(x)-(x)-(x)--|
|-------------------|-(x)-(x)-(x)--(x)-(x)-(x)--|
|-5--5--5--5--0-0/1-|-(x)-(x)-(x)--(x)-(x)-(x)--|
|-5--5--5--5--0-0/1-|-(x)-(x)-(x)--(x)-(x)-(x)--|
|-5--5--5--5--0-0/1-|-(x)-(x)-(x)--(x)-(x)-(x)--|

This city, this city is killing us…
|----------------------------|--------------------------------|
|----------------------------|--------------------------------|
|----------------------------|--------------------------------|
|-7-----2-----3-----2-2/3/2--|--7-----2-----3-----5--5--0-0h1-|
|-7-x4--2-x4--3-x4--2-2/3/2--|--7-x4--2-x4--3-x4--5--5--0-0h1-|
|-7-----2-----3-----2-2/3/2--|--7-----2-----3-----5--5--0-0h1-|

Break II
|-------------------|-(x)-(x)-(x)--(x)-(x)-(x)--|
|-------------------|-(x)-(x)-(x)--(x)-(x)-(x)--|
|-------------------|-(x)-(x)-(x)--(x)-(x)-(x)--|
|-5--5--5--5--0-0h1-|-(x)-(x)-(x)--(x)-(x)-(x)--|
|-5--5--5--5--0-0h1-|-(x)-(x)-(x)--(x)-(x)-(x)--|
|-5--5--5--5--0-0h1-|-(x)-(x)-(x)--(x)-(x)-(x)--|

This city, this city is killing us…
|----------------------------|--------------------------------|
|----------------------------|--------------------------------|
|----------------------------|--------------------------------|
|-9-----4-----5-----4-4/5/4--|--9-----4-----5-----7--7--2-2/3-|
|-9-x4--4-x4--5-x4--4-4/5/4--|--9-x4--4-x4--5-x4--7--7--2-2/3-|
|-9-----4-----5-----4-4/5/4--|--9-----4-----5-----7--7--2-2/3-|

Outro
|-------------------|-(x)-(x)-(x)--(x)-(x)-(x)--|
|-------------------|-(x)-(x)-(x)--(x)-(x)-(x)--|
|-------------------|-(x)-(x)-(x)--(x)-(x)-(x)--|
|-7--7--7--7--2-2/3-|-(x)-(x)-(x)--(x)-(x)-(x)--|
|-7--7--7--7--2-2/3-|-(x)-(x)-(x)--(x)-(x)-(x)--|
|-7--7--7--7--2-2/3-|-(x)-(x)-(x)--(x)-(x)-(x)--|

Pete D.
Tap to rate this tab
# A B C D E F G H I J K L M N O P Q R S T U V W X Y Z