Song name
# A B C D E F G H I J K L M N O P Q R S T U V W X Y Z

Cursive - Hymns For The Heathen tab

Intro
|--------------------------------------------------------|
|--------------------------------------------------------|
|--------------------------------------------------------|
|-5/1-------5/1-------5/1-----------------------7/1------|
|-5/1----1--5/1----1--5/1----1---0---0----------7/1----1-|
|-5/1--1----5/1--1----5/1--1---3---4---5-8-6-9--7/1--1---|

Verse (Night has draped…)
|-------------------------------------------------------|
|-------------------------------------------------------|
|-------------------------------------------------------|
|----------5/1---------------5/1---------------5/1------|
|---0---0--5/1----1---0---0--5/1----1---0---0--5/1----1-|
|-3---4----5/1--1---3---4----5/1--1---3---4----5/1--1---|

(From the campus and the tavern…)
--------------------------------------------------------|
--------------------------------------------------------|
--------------------------------------------------------|
------------------7/2-------7/2-------7/2---------------|
---0---0----------7/2----2--7/2----2--7/2----2----------|
-3---4---5-8-6-9--7/2--2----7/2--2----7/2--2---5-8-6-9--|

(guilt, the fables, and folly…)
----------------------------------------------|
----------------------------------------------|
----------------------------------------------|
-7/2-------7/2-------7/2----------------------|
-7/2----2--7/2----2--7/2----2---2---1---2---0-|
-7/2--2----7/2--2----7/2--2---5---1---6---3---|

Chorus (Fourteen hymns for the heathen…)
------------|
------------|
-3--4-------|
-3--4--5--3-|
-1--2--5--3-|
-------5--3-|

Break
-------------|
-------------|
-------------|
-------------|
-3/5-5-5-5-3-|
-------------|


Very End (Rocking tears of disenchantment…)
----------------------|
----------------------|
-12--11-8--7--5--4--3-|
-12--11-8--7--5--4--3-|
-10--9--6--5--3--2--1-|
----------------------|
Tap to rate this tab
 
# A B C D E F G H I J K L M N O P Q R S T U V W X Y Z