Song name
# A B C D E F G H I J K L M N O P Q R S T U V W X Y Z

Cursive - Recluse tab

e|--------------------------10-----------------------------------|
B|--10-11-10-11-13-11-10-11----11--------------------------------|
G|---------------------------------------------------------------|
D|---------------------------------------------------------------|
A|---------------------------------------------------------------|
E|---------------------------------------------------------------|

e|---------------------------------------------------------------|
B|--10-11-10-11-13-11-10-11-10-11--------------------------------|
G|---------------------------------------------------------------|
D|---------------------------------------------------------------|
A|---------------------------------------------------------------|
E|---------------------------------------------------------------|

e|--------------------------10-----------------------------------|
B|--10-11-10-11-13-11-10-11----11--------------------------------|
G|---------------------------------------------------------------|
D|---------------------------------------------------------------|
A|---------------------------------------------------------------|
E|---------------------------------------------------------------|

e|---------------------------------------------------------------|
B|--10-11-10-11-13-11-10-11-10-8---------------------------------|
G|---------------------------------------------------------------|
D|---------------------------------------------------------------|
A|---------------------------------------------------------------|
E|---------------------------------------------------------------|

you can trill the 10 and 11 if you want, and slide the 10 to the 8

my firts tab, dont know wat the hell I'm doin :)
Tap to rate this tab
 
# A B C D E F G H I J K L M N O P Q R S T U V W X Y Z