Guitaretab - guitar tabs
Song name
# A B C D E F G H I J K L M N O P Q R S T U V W X Y Z

Cursive - A Gentleman Caller tab

Credit:Mikehasnolife

STANDARD TUNING

Intro/ verse
---------------------------------------------|
---------------------------------------------|
-11/12-12-12---11/12-12-12---14-14-14-14-----|
---------------------------------------------|
--9/10-10-10----9/10-10-10---12-12-12-12-----|
---------------------------------------------|

Intro cont.
---------------------------------------------|
---------------------------------------------|
-15-15-15-15-15-15-15-15-15-15-15-15---------|
---------------------------------------------|
-13-13-13-13-13-13-13-13-13-13-13-13---------|
---------------------------------------------|
[ Tab from: http://www.guitaretab.com/c/cursive/58149.html ]
Your Gentleman Caller.... (chorus)
----------------------|x3-------------------------|
----------------------|---------------------------|
----------------------|--7-7-7-4-4-4-5-5-5--------|
----------------------|--------------------5-5-5--|
----------------------|---------------------------|
-7/1\7~-7/5\7/5\7/5---|---------------------------|


bridge
--------------------------------------------|x2
--------------------------------------------|
--------------------------------------------|
--------------------------------------------|
-5-5-5-5-5-5-5-5----------------------------|
5-5-5-5-5-5-5-5-----------------------------|

but in the morning...(bridge cont.)
---------------------------------------|
---------------------------------------|
---------------------------------------|
---------------------------------------|
-5-5-5-5-5-5-5-5--5-5-5-5-5-5-5-5------|
5-5-5-5-5-5-5-5--7-7-7-7-7-7-7-7-------|

------------------------------------------------|
------------------------------------------------|
------------------------------------------------|
-4-4-4-4-4-4-4-4--------------------------------|
5-5-5-5-5-5-5-5---5-5-5-5-5-5-5-5---------------|
-----------------3-3-3-3-3-3-3-3----------------|
Related for A Gentleman Caller tab
Advertisement will be closed in 10 seconds