Song name
# A B C D E F G H I J K L M N O P Q R S T U V W X Y Z

Cursive - Great Decay tab

If anyone has the full thing, send it please :) this is all I have

e------------------------------------------|
b------------------------------------------|
g------------------------------------------|
d------------------------------------------|
a--------7------7-----7------7-----5-5-----|
e--6-6----6-6---6-6---6-6--6-0-------------|


e-------------------------------------------|
b-------------------------------------------|
g-------------------------------------------|
d------------------7-7----------------------|
a-----------8-8---------5-5-----------------|
e---5--5 -----------------------------------|
Tap to rate this tab
# A B C D E F G H I J K L M N O P Q R S T U V W X Y Z