Song name
# A B C D E F G H I J K L M N O P Q R S T U V W X Y Z

Cursive - Some Red Handed Slight Of Hand tab

This song was hard to tab out, because it has violins, and other instruments that are 
and so, i got it asclose as i could by ear. Another note is I searched the internet for 
tab and they had none, so i made it all up. Hope it turns out alright. Sorry if it sucks.


Title: Some Red Handed Slight of Hand
Band: Cursive
Album: The Ugly Organ

Intro
The Strumming goes wierd, figure it out.
|-----------------------------------------------|
|-----------------------------------------------|
|--7---6-5---5-6---7-6-5-6-8--------------------|
|--7---6-5---5-6---7-6-5-6-8--------------------|
|--5---4-3---3-4---5-4-3-4-6--------------------|
|-----------------------------------------------|

"And now we proudly present, songs perverse and songs of lament, A couple hymns of 
and song that recognize our sick obsessions"


*vilons in background*


"So sing along, I'm on the ugly organ again...."

In the background you hear something like...
|------------------------------------------------|
|----8^-8^-8^-8^-8^-8^-8^-8^-8^-8^---------------|
|------------------------------------------------|
|------------------------------------------------|
|------------------------------------------------|
|------------------------------------------------|

Then

"There's no use to keep a secret..."

Repeat Intro
|-----------------------------------------------|
|-----------------------------------------------|
|--7---6-5---5-6---7-6-5-6-8--------------------|
|--7---6-5---5-6---7-6-5-6-8--------------------|
|--5---4-3---3-4---5-4-3-4-6--------------------|
|-----------------------------------------------|

Violin Interlude
|-----------------------------------------------------|
|-----------------------------------------------------|
|-7-7-7-7-7-7--5-5-5-5-5-5--3-3-3-3-3-3--2-3-4--------|
|-----------------------------------------------------|
|-----------------------------------------------------|
|-----------------------------------------------------|


"Our father who art in heaven..."

|----------------------------------------------------|
|----------------------------------------------------|
|-7----5----4---5-6-7--------------------------------|
|-7----5----4---5-6-7--------------------------------|
|-5----3----2---3-4-5--------------------------------|
|----------------------------------------------------|

"The reverend plays on the ugly organ..."

|----------------------------------------|
|----8^-8^-8^-8^-8^-8^-8^-8^-8^-8^-------|
|----------------------------------------|
|----------------------------------------|
|----------------------------------------|
|----------------------------------------|

Then...

Once again, Strumming goes wierd, figure it out.
|-----------------------------------------------|
|-----------------------------------------------|
|--7---6-5---5-6---7-6-5-6-8--------------------|
|--7---6-5---5-6---7-6-5-6-8--------------------|
|--5---4-3---3-4---5-4-3-4-6--------------------|
|-----------------------------------------------|

"some red handed sleight of hand , woah oh......"

|-----------------------------------------------|
|-----------------------------------------------|
|--7---6-5---5-6---7-6-5-6-8--------------------|
|--7---6-5---5-6---7-6-5-6-8--------------------|
|--5---4-3---3-4---5-4-3-4-6--------------------|
|-----------------------------------------------|
Tap to rate this tab
# A B C D E F G H I J K L M N O P Q R S T U V W X Y Z