Song name
# A B C D E F G H I J K L M N O P Q R S T U V W X Y Z

Cursive - Bad Sects tab

Sorry it's not complete. A lot is hard to hear.
But this should be a better template than what we have now.

Intro:
e|-----7-8-7------7-7-7-8-7-------7-8-7------7-7-7-8-7--5-7-10-7-5---5/7--|
B|-----------8----8-8-8-8-8-------------8----8-8-8-8-8--7-8-8--8-7---7/8--|
G|--9----------9--7-7-7-7-7-----9---------7--7-7-7-7-7--7-9-9--9-7--------|
D|--------------------------x2--------------------------------------------|
A|------------------------------------------------------------------------|
E|------------------------------------------------------------------------|

Verse:
e|--5/7------8-7----|
B|--7/8------8-8----|
G|-----------7-7----|
D|------------------|
A|------------------|
E|------------------|

End of Chorus
e|--0----|
B|--3----|
G|--0----|
D|--0----|
A|--x----|
E|--3----|

Verse 2
e|---------0----------5/7----5/7---5/7----5/7---|
B|---------0----------7/8----7/8---7/8----7/8---|
G|--4-4-4--4------------------------------------|
D|--0-0-0---------------------------------------|
A|----------------------------------------------|
E|----------------------------------------------|
Mute......

End of Chorus
e|--0----|
B|--3----|
G|--0----|
D|--0----|
A|--x----|
E|--3----|

Bridge:
[Guitar 1] All slightly muted; towards end slightly let off
e|-------------------------------------------------|
B|-------------------------------------------------|
G|-------------------------------------------------|
D|--9-10-9-10-9-10-9-10--9-10-9-10--9-10-9-10--10^-|
A|-------------------------------------------------|
E|-------------------------------------------------|

[Guitar 2] Muted
e|----------------------------------------------------0---|
B|----------------------------------------------------3---|
G|--5-4-5-4-5-4-7-4-5-4-7-4-5-4-7-4--5-4-7-4-5-4-7-4--0---|
D|--5-4-7-4-5-4-7-4-5-4-7-4-5-4-7-4--5-4-7-4-5-4-7-4--0---|
A|--3-2-5-2-3-2-5-2-3-2-5-2-3-2-5-2--3-2-5-2-3-2-5-2--x---|
E|----------------------------------------------------3---|

Outro:
e|-----7-8-7------7-7-7-8-7-------7-8-7------7-7-7-8-7--5-7-10-7-5------|
B|-----------8----8-8-8-8-8-------------8----8-8-8-8-8--7-8-8--8-7------|
G|--9----------9--7-7-7-7-7-----9---------7--7-7-7-7-7--7-9-9--9-7------|
D|---------------------------x2-----------------------------------------|
A|----------------------------------------------------------------------|
E|----------------------------------------------------------------------|

e|-------------------------------------0---5---|
B|-------------------------------------3---7---|
G|-------------------------------------0-------|
D|-------------------------------------0-------|
A|--7/8--8-8-8-8-8/11-11-11-11-11\9-8--x-------|
E|-------------------------------------3-------|
Tap to rate this tab
# A B C D E F G H I J K L M N O P Q R S T U V W X Y Z