Guitaretab - guitar tabs
Song name
# A B C D E F G H I J K L M N O P Q R S T U V W X Y Z

Cursive - The Recluse tab

The Recluse
[ Tab from: http://www.guitaretab.com/c/cursive/85744.html ]
e|------------------------------10------|------------------------------------|
b|--10-11-10-11-13--11--x-x-11------11--|-----11-----13--11--10--11--10--11--| 
g|--------------------------------------|--12-----12-------------------------| 
d|--------------------------------------|------------------------------------|
a|--------------------------------------|------------------------------------|
e|--------------------------------------|------------------------------------|  x3

e|--------------------------------10------|------------------------------------|
b|--10-11-10-11-13--11--10-10-11------11--|-----11-----13--11--10--11--10--11--| 
g|----------------------------------------|--12-----12-------------------------| 
d|----------------------------------------|------------------------------------|
a|----------------------------------------|------------------------------------|
e|----------------------------------------|------------------------------------|  x1
Related for The Recluse tab
The Recluse chords by Cursive