Song name
# A B C D E F G H I J K L M N O P Q R S T U V W X Y Z

Cursive - The Lament Of Pretty Baby tab

Help us improve GuitareTab! Take a short survey!
The Lament of Pretty Baby
Cursive
Domestica
Tuning: Half-step down
by: jj murphy/nataku

this is pretty much a skeleton of the song, but i've inserted time signatures to you 
which section of sound belongs where in the song.

3 stars?

(Eb Ab Db Gb Bb eb)

guitar 1 intro/verse
|-----------|
|-----------|
|-----------|  x13
|-3-4-4-4-4-|
|-x-x-x-x-x-|
|-0-2-2-2-2-|


guitar 2 (and other background noises converted to guitar)
 (0:07)
|-----------------------------|
|-----------------------------|
|-----------------------------| x4
|-16-16-----------------16-16-|
|------18-18-19-19-20-20------|
|-----------------------------|

(0:11)REPEAT 4* TILL(0:20)
|--------------------------|
|--------------------------|
|--------------------------|
|-4*--------------3*-6*-4*-|
|--------------------------|
|--------------------------|
*tremolo/speed picking
   -- this picking style is basically placing your pick on the string and using your 
to pluck the string up and down as fast as possible.

(0:12)
|------11-11-|
|------------|
|-10-10------|  x2
|------------|
|------------|
|------------|

(in the background basically throughout all verses)
|--------|
|-2-3-2-3| I cant really hear it that well. but it sounds something like
|-0-0-0-1|  that, so play with it.
|--------|
|--------|
|--------|

and this every once in a while, when you hear it bend

|----|
|-0~-|
|-6b~|
|----|
|----|
|----|
Related for The Lament Of Pretty Baby tab