Curtis Mayfield - Move On Up tab

Horn Part:

e|10-10---------------------------------------------|
B|12-12-10------------------------------------------|
G|---------11--7s9-------7-9 7----7-7--7s9s11-------|
D|----------------9-7h9--------9--------------------|
A|--------------------------------------------------|
E|--------------------------------------------------|

Chords:

 F#m  Em A Bm

e|9---7--5--7---------------------------------------|
B|10--8--5--7---------------------------------------|
G|11--9--6--7---------------------------------------|
D|--------------------------------------------------|
A|--------------------------------------------------|
E|--------------------------------------------------|

Thats pretty much the whole song
Complaints: parisian@hotmail.co.uk
Tap to rate this tab
 
# A B C D E F G H I J K L M N O P Q R S T U V W X Y Z