Song name
# A B C D E F G H I J K L M N O P Q R S T U V W X Y Z

Curved Air - Back Street Luv tab

---------------------------------------------------------------------
Back Street Luv    Curved Air
---------------------------------------------------------------------
Tabbed by: John McNally
Email: jm2u@hotmail.com

Tuning: standard

There are just three sections to learn which follow: A B A B C x 2 structure with sec A to fade
This an interpretation, as the original has keyboard and synth. It is quite 
accurate though and works well with guitar, bass and drums


Intro     Cm      Cm\Eb      Ab      Ab7        G      Cm     G7
e|-----------3--------3--------4--------4---------3------3------3-|
B|----------4--------4--------4--------4---------3------4------3--|
G|---------5--------5--------5--------5---------4------5------4---|
D|--------5--------5--------6--------4---------5------5------3----|
A|-------3--------6--------6--------6---------5------3------5-----|
E|------------------------4--------4---------3-------------3------|

Sec-A
e|-----------------------------------------------------------------|
B|-----------------------------------------------------------------|
G|-----------------------------------------------------------------|
D|-----------------------------------------------------------------|
A|---3----3--6-6---6----5--5---4-----3----3--6-6---6----5--5---4---|
E|------------------6------------------------------6---------------|

e|-----------------------------------------------------------------|
B|-----------------------------------------------------------------|
G|-----------------------------------------------------------------|
D|-----------------------------------------------------------------|
A|---3----3--6-6---6----5--5---4----3----3--6-6---6----5--5---4----|
E|------------------6------------------------------6---------------|
      Sum - mer's   comin' time to dream  the day away
 And she's   so    sunny    is the girl  you met today

Sec-B  F       C    Gsus4    G      F       C     Gsus4   G 
e|-------1------3------3-------3-------1------3------3------3------|
B|------1------5------3-------3-------1------5------3------3-------|
G|-----2------5------5-------4-------2------5------5------4--------|
D|----3------5------5-------5-------3------5------5------5---------|
A|---3------3------5-------5-------3------3------5------5----------|
E|--1-------------3-------3-------1-------------3------3-----------|
    Will    she   make   it?    Can    she    take   it? 
    Like    to    try    love,  such    a     shy    love 

Riff A x 1

B|-----------------------------------------------------------------|
G|-----------------------------------------------------------------|
D|-----------------------------------------------------------------|
A|---3----3--6-6---6----5--5---4----3----3--6-6---6----5--5---4----|
E|------------------6------------------------------6---------------|
     Rack - et   back    street   leanin' on the wall 
     She  reads a story   of her life  before it all

       F       C    Gsus4    G      F       C     Gsus4   G 
e|-------1------3------3-------3-------1------3------3------3------|
B|------1------5------3-------3-------1------5------3------3-------|
G|-----2------5------5-------4-------2------5------5------4--------|
D|----3------5------5-------5-------3------5------5------5---------|
A|---3------3------5-------5-------3------3------5------5----------|
E|--1-------------3-------3-------1-------------3------3-----------|
    Did     she  give    love?   Could  she   feel   love? 
    Did     she  find    love?   Was    it    real   love? 


 Sec-C Cm      Cm\Eb             Ab              Ab7      
e|-----3------------3---===--------4----------------4------------|
B|----4------------4----====------4-----------=----4-------------|
G|---5------------5----===-==----5----------------5--------------|
D|--5------------5--------------6----------------4---------------|
A|-3------------6--------------6----------------6----------------|
E|----------------------------4----------------4-----------------|
  Where's your smile today? Did she let you try?

       G               Cm                   G7
e|-------3---------------3--------------------3------------------|
B|------3---------------4--------------------3-------------------|
G|-----4---------------5--------------------4--------------------|
D|----5---------------5--------------------3---------------------|
A|---5---------------3--------------------5----------------------|
E|--3------------------------------------3-----------------------|
  Try  to see  she  didn't  mean  to   Make  you  feel  so  sad       

Riff A x 1

 (Sec-A)
Racket back street sittin' on a wall 
She tells a man that she knew before it all 

(Sec-B)
When she made love she tried to find love 
When she gives love she will find love. 

(Sec-A)
Summer's comin', time to dream the day away 
And she's so sunny is the girl you met today 

(Sec-B)
Will she make it? Can she take it? 
Like to try love, such a shy love 

(Sec-C)
Where's you smile today? 
Did she let you cry? 
Try to see she didn't mean to 
Make you feel so sad

(Sec-A to Fade)

************************************

| /   slide up
| \   slide down
| h   hammer-on
| p   pull-off
| ~   vibrato
| +   harmonic
| x   Mute note
| b   Bend
| pb  Pre-bend
| br  Bend release
| pbr Pre-bend release
| brb Bend release bend

************************************
Tap to rate this tab
# A B C D E F G H I J K L M N O P Q R S T U V W X Y Z