Song name
# A B C D E F G H I J K L M N O P Q R S T U V W X Y Z

Custom Kings - Somethings Burning tab

------------------------------------------------------------------------------
			     Something's Burning - Custom Kings
                              website: www.customkings.com.au
-------------------------------------------------------------------------------
Tabbed by:Alex Kaye

Their was no Custom Kings tabs found anywhere on the net, so i thought i would have to 
the ball rolling and get one out their. Hope its abit of help. 1st tab ive done!

Song is in E

Tuning:Standard Tuning-Capo on 2nd fret
numbers relative to Capo

Intro:
e|-----------------------------------------------------|
B|-----------3-------3-------3------------3------------|
G|-----------2-------0-------0------------0------------|      repeat 7 times for intro
D|-----0--------------------------0h2p0----------------|
A|--------------0h2------3-----------------------------|
E|-----------------------------------------------------|

Verse:
e|---------------------------------------------------------------------|
B|---------3----------0--------0--------3--------3--------3-----3------|
G|---------2----------3--------3--------0--------0--------0-----2------|  Play once
D|-----0---------------------------0h2------3--------2-------0---------|
A|-------------0h2--------3--------------------------------------------|
E|---------------------------------------------------------------------|

e|-------------------------------|
B|---------3-------3-------------|
G|---------2--------0h2----------|  Play thoughout verse: (intro picking also occassionally
D|-----0-------------------------|                                       played)
A|-------------------------------|
E|-------------------------------|

   Chorus: The same as intro
e|--------------------------------------------|
B|---------3-------3-------3----------3-------|
G|---------2-------0-------0----------0-------|
D|----0------------------------0h2p0----------|
A|------------0h2------3----------------------|
E|--------------------------------------------|

That gives a general outline of the song. You should be able to work it out from their 
each part comes in.
Have fun. Great song.
Please, if you know any custom kings songs, wack up the tab.

| h  hammer-on
| p  pull-off

===============================================================================
Tap to rate this tab
 
# A B C D E F G H I J K L M N O P Q R S T U V W X Y Z