Song name
# A B C D E F G H I J K L M N O P Q R S T U V W X Y Z

Custom Kings - Swimming In The Darkness tab

-------------------------------------------------------------------------------
			     Swimming in the Darkness - Custom Kings
-------------------------------------------------------------------------------
Tabbed by: Alex Kaye

Tuning: Eadgbe
The song actually stay in C pretty much the whole way through except for one spot. Alot
the song just has the rythym guitarist just strumming th cord of C as a filler. The
then make the song more interesting. The progressions can tend to mix around alittle in 
song. So here is more just an outline. Its short and pretty crappy so i appologise in advance.

C: e|----0---------|
    b|----1--------|
    G|----0--------|
    D|----2--------|
    A|----3--------|
     E|----+(0)----|

Intro:
e|-----------0-----------------------------------------------------------------------|
B|---0h1--1----1----------1-1---------1---------5------------------------------------|
G|---------------------0----0------0----0-------5------------------------------------|
D|------------------2-----------3------------5------5--------------------------------|
A|-----------------------------------------------------------------------------------|
E|-----------------------------------------------------------------------------------|

verse: The Guitar can not always be heard but these two progressions are used (also
in the song the intro proggresion is used)

1)
e|----------------------------------------------------------------------------------|
B|-----------1---------1---------1--------5-----------------------------------------|
G|--------0----0----0----0----0----0-----5------------------------------------------|
D|------2---------2---------3---------5-----5---------------------------------------|
A|----------------------------------------------------------------------------------|
E|----------------------------------------------------------------------------------|

2)
e|---------------------------------------------------------------------------------|
B|-----1----1--------1-------5-----------------------------------------------------|
G|-----0----0--------0-------5-----------------------------------------------------|
D|-----2----2--------3-------5-----------------------------------------------------|
A|---------------------------------------------------------------------------------|
E|---------------------------------------------------------------------------------|

custom king rock!

| /  slide up
| \  slide down
| h  hammer-on
| p  pull-off
| ~  vibrato
| +  harmonic
| x  Mute note
===============================================================================
Tap to rate this tab
 
# A B C D E F G H I J K L M N O P Q R S T U V W X Y Z