Song name
# A B C D E F G H I J K L M N O P Q R S T U V W X Y Z

Custom Kings - Rose Pickles tab

----------------------------------------------------------------------------
			     Rose Pickles - Custom Kings
----------------------------------------------------------------------------
Tabbed by: Ryan Tatnell
Email:Ryan_tatnell@hotmail.com

Tuning: Standard, Capo on 2nd

Intro/Verse
e|------------------------0-------0------0-------0-------------------------|
B|--1-1-1----1-0---3-0-----1-------1------1-------1------------------------|
G|--2-2-0----0-0---0-0------2-------2------2-------2-----------------------|
D|--3-3-0---2-----------2-------2-------2-------2--------------------------|
A|---------3------2----0-------0-------0-------0---------------------------|
E|---------------3---------------------------------------------------------|

e|--------------------------3------3------3------3-------------------------|
B|-----1-1----1-0----1-0-----1------1------1------1------------------------|
G|---2-2-0----0-0----0-0------0------0------0------0-----------------------|
D|--3--3-0---2------------2------2------2------2---------------------------|
A|----------3-------2----3------3------3------3----------------------------|
E|-----------------3-------------------------------------------------------|

Chorus - its hard to hear but i think its like this
"You, baby..."                                   " you baby..."
e|---------------0---------------------------0--------------------------0--|
B|---1-0---3-0---1-1------1-1---1-0----3-0---1-1-----1-1----3-0---3-0---1-1|
G|---0-0---0-0-----2------2-0---0-0----0-0-----2-----2-0----0-0---0-0-----2|
D|--2-----------2-----3-3------2------------2-----3-3-----2------------2---|
A|-3------2----0--------------3-------2----0-------------3-------2----0----|
E|-------3---------------------------3--------------------------3----------|
  
" I dream something more.."
e|----------------------------3-----3-----3-----3--------------------------|
B|------1-1----1-0----3-0-----1-1---1-1---1-1---1-1------------------------|
G|------2-0----0-0----0-0-------0-----0-----0-----0------------------------|
D|--3-3------2--------------2------2-----2-----2---------------------------|
A|----------3--------2-----3------3-----3-----3----------------------------|
E|------------------3------------------------------------------------------|

back to verse

Lead up to bridge/solo

"and i cooked her the best food that she'd ever tasted
e|------------------------0-------0------0-------0-------------------------|
B|--1-1-1----1-0---3-0-----1-------1------1-------1------------------------|
G|--2-2-0----0-0---0-0------2-------2------2-------2-----------------------|
D|--3-3-0---2-----------2-------2-------2-------2--------------------------|
A|---------3------2----0-------0-------0-------0---------------------------|
E|---------------3---------------------------------------------------------|

 "But the girl just wants to get wasted.
e|-----0-------0--------0-------0------------------------------------------|
B|-------1-------1--------1-------1----------------------------------------|
G|--------2--------2--------2-------2--------------------------------------|
D|----2-------2--------2-------2-------------------------------------------|
A|---0-------0--------0-------0--------------------------------------------|
E|-------------------------------------------------------------------------|

 bends these notes slightly
e|-------------------------------------------------------------------------|
B|-------------------------------------------------------------------------|
G|-------------------------------------------------------------------------|
D|-------------------------------------------------------------------------|
A|----0h2h5--2--0h2h5-2-0h2h5-0-0h2h5--------------------------------------|
E|--3---------------------------------3------------------------------------|

then verse for "mmm bap" bit
chorus
verse

End
e|-----0-------0--------0-------0-------------0----------------------------|
B|-------1-------1--------1-------1-----------1----------------------------|
G|--------2--------2--------2-------2---------2----------------------------|
D|----2-------2--------2-------2--------------2----------------------------|
A|---0-------0--------0-------0---------------0----------------------------|
E|-------------------------------------------------------------------------|


This is about the best i could get it. please email me with any
suggestions/correction/alterations at ryan_tatnell@hotmail.com
also please rate.


| /  slide up
| \  slide down
| h  hammer-on
| p  pull-off
| ~  vibrato
| +  harmonic
| x  Mute note
===============================================================================
Tap to rate this tab
# A B C D E F G H I J K L M N O P Q R S T U V W X Y Z