Song name
# A B C D E F G H I J K L M N O P Q R S T U V W X Y Z

Customs - Justine tab

Hi,
Since there (again, see the song Rex which I tabbed out) is no tab for the new song 
from the Customs,
I'd liked to tab it out for the rest of you guys who is a great fan and a guitar player. 
song is brand-new, and again, not that hard to play, you just got to get used to the 
and keep playing in that rhythm.
I haven't had the time to search after the chords used in the chorus and to tab out the solo,
so this tab is only from the intro and some filling parts.
The rest might follow later.

If you have the chorus of solo tabbed out, please send me an e-mail and I will use it in 
tab with your full credits, or you can use my part if you put my credits in your tab.

- lemmens_gert@hotmail.com -

Have fun!


|---------------------------------------------------------------------------|
|---------------------------------------------------------------------------|
|---------------------------------------------------------------------------|
|---------------------------------------------------------------------------|
|------------------------5-5-5-5-5-5-5-5---9-9-9-9-9-9-9-9-9-9-9-9-9-9-9-9--|
|--10/--2-2-2-2-2-2-2-2-----------------------------------------------------|

|------------------------------------------------------------------------|
|------------------------------------------------------------------------|
|------------------------------------------------------------------------|x3
|------------------------------------------------------------------------|
|--------------------5-5-5-5-5-5-5-5---9-9-9-9-9-9-9-9-9-9-9-9-9-9-9-9---|
|---2-2-2-2-2-2-2-2------------------------------------------------------|

|------------------------------------------------------------------------|
|------------------------------------------------------------------------|
|------------------------------------------------------------------------|
|--11-11-7-7-7-7-7-7--9-9-4-4-4-4-4-4--7-7-4-4-4-4-4-4-4-4-4-4-4-4-4-4---|
|------------------------------------------------------------------------|
|------------------------------------------------------------------------|

|------------------------------------------------------------------------|
|------------------------------------------------------------------------|
|------------------------------------------------------------------------|
|--11-11-7-7-7-7-7-7--9-9-4-4-4-4-4-4--7-7-4-4-4-4-4-4-7-7-4-4-4-4-4-4---|
|------------------------------------------------------------------------|
|------------------------------------------------------------------------|

|------------------------------------------------------------------------|
|------------------------------------------------------------------------|
|------------------------------------------------------------------------|
|--11-11-7-7-7-7-7-7--9-9-4-4-4-4-4-4--7-7-4-4-4-4-4-4-4-4-4-4-4-4-4-4---|
|------------------------------------------------------------------------|
|------------------------------------------------------------------------|

|------------------------------------------------------------------------|
|------------------------------------------------------------------------|
|------------------------------------------------------------------------|
|--11-11-7-7-7-7-7-7--9-9-4-4-4-4-4-4--7-7-4-4-4-4-4-4-7-7-4-4-7-7-4-4---|
|------------------------------------------------------------------------|
|------------------------------------------------------------------------|

|------------------------------------------------------------------------|
|------------------------------------------------------------------------|
|------------------------------------------------------------------------|
|------------------------------------------------------------------------|
|--------------------5-5-5-5-5-5-5-5---9-9-9-9-9-9-9-9-9-9-9-9-9-9-9-9---|
|---2-2-2-2-2-2-2-2------------------------------------------------------|

|------------------------------------------------------------------------|
|------------------------------------------------------------------------|
|------------------------------------------------------------------------|
|--11-11-7-7-7-7-7-7--9-9-4-4-4-4-4-4--7-7-4-4-4-4-4-4-4-4-4-4-4-4-4-4---|
|------------------------------------------------------------------------|
|------------------------------------------------------------------------|

|------------------------------------------------------------------------|
|------------------------------------------------------------------------|
|------------------------------------------------------------------------|
|--11-11-7-7-7-7-7-7--9-9-4-4-4-4-4-4--7-7-4-4-4-4-4-4-7-7-4-4-4-4-4-4---|
|------------------------------------------------------------------------|
|------------------------------------------------------------------------|

|------------------------------------------------------------------------|
|------------------------------------------------------------------------|
|------------------------------------------------------------------------|
|--11-11-7-7-7-7-7-7--9-9-4-4-4-4-4-4--7-7-4-4-4-4-4-4-4-4-4-4-4-4-4-4---|
|------------------------------------------------------------------------|
|------------------------------------------------------------------------|

|------------------------------------------------------------------------|
|------------------------------------------------------------------------|
|------------------------------------------------------------------------|
|--11-11-7-7-7-7-7-7--9-9-4-4-4-4-4-4--7-7-4-4-4-4-4-4-6-6-2-2-2-2-2-2---|
|------------------------------------------------------------------------|
|------------------------------------------------------------------------|

Thus far the intro.
This part repeats itself in the song one or two times, but it shouldn't be that hard to 
out what he plays with the above tabs.
Good luck!

http://blogs.myspace.com/customstheband
Tap to rate this tab
# A B C D E F G H I J K L M N O P Q R S T U V W X Y Z