Song name
# A B C D E F G H I J K L M N O P Q R S T U V W X Y Z

Customs - Justine tab

################################
#Song: Justine                 #
#Band: Customs (Belgian)       #
#Album: Enter the Characters   #
#Tab: Bladerkeuh               #
################################

Hi,
Since there (again, see the song Rex which I tabbed out)
is no tab for the new song Justine from the Customs,
I'd liked to tab it out for the rest of you guys who 
is a great fan and a guitar player. 
The song is brand-new, and again, not that hard to play, 
you just got to get used to the rhythm 
and keep playing in that rhythm.

For any comments, you can send something to 
- lemmens_gert@hotmail.com - 
The full credits are on my name

Have fun!


Intro

|---------------------------------------------------------------------------|
|---------------------------------------------------------------------------|
|---------------------------------------------------------------------------|
|---------------------------------------------------------------------------|
|------------------------5-5-5-5-5-5-5-5---9-9-9-9-9-9-9-9-9-9-9-9-9-9-9-9--|
|--10/--2-2-2-2-2-2-2-2-----------------------------------------------------|

|------------------------------------------------------------------------|
|------------------------------------------------------------------------|
|------------------------------------------------------------------------|x3
|------------------------------------------------------------------------|
|--------------------5-5-5-5-5-5-5-5---9-9-9-9-9-9-9-9-9-9-9-9-9-9-9-9---|
|---2-2-2-2-2-2-2-2------------------------------------------------------|


Verse 1

There are many very similar lines in this part, but at the end of each bar,
there is a small difference with the previous one, so check them all out :)

|------------------------------------------------------------------------|
|------------------------------------------------------------------------|
|------------------------------------------------------------------------|
|--11-11-7-7-7-7-7-7--9-9-4-4-4-4-4-4--7-7-4-4-4-4-4-4-4-4-4-4-4-4-4-4---|
|------------------------------------------------------------------------|
|------------------------------------------------------------------------|

|------------------------------------------------------------------------|
|------------------------------------------------------------------------|
|------------------------------------------------------------------------|
|--11-11-7-7-7-7-7-7--9-9-4-4-4-4-4-4--7-7-4-4-4-4-4-4-7-7-4-4-4-4-4-4---|
|------------------------------------------------------------------------|
|------------------------------------------------------------------------|

|------------------------------------------------------------------------|
|------------------------------------------------------------------------|
|------------------------------------------------------------------------|
|--11-11-7-7-7-7-7-7--9-9-4-4-4-4-4-4--7-7-4-4-4-4-4-4-4-4-4-4-4-4-4-4---|
|------------------------------------------------------------------------|
|------------------------------------------------------------------------|

|------------------------------------------------------------------------|
|------------------------------------------------------------------------|
|------------------------------------------------------------------------|
|--11-11-7-7-7-7-7-7--9-9-4-4-4-4-4-4--7-7-4-4-4-4-4-4-7-7-4-4-7-7-4-4---|
|------------------------------------------------------------------------|
|------------------------------------------------------------------------|

|------------------------------------------------------------------------|
|------------------------------------------------------------------------|
|------------------------------------------------------------------------|
|------------------------------------------------------------------------|
|--------------------5-5-5-5-5-5-5-5---9-9-9-9-9-9-9-9-9-9-9-9-9-9-9-9---|
|---2-2-2-2-2-2-2-2------------------------------------------------------|

|------------------------------------------------------------------------|
|------------------------------------------------------------------------|
|------------------------------------------------------------------------|
|--11-11-7-7-7-7-7-7--9-9-4-4-4-4-4-4--7-7-4-4-4-4-4-4-4-4-4-4-4-4-4-4---|
|------------------------------------------------------------------------|
|------------------------------------------------------------------------|

|------------------------------------------------------------------------|
|------------------------------------------------------------------------|
|------------------------------------------------------------------------|
|--11-11-7-7-7-7-7-7--9-9-4-4-4-4-4-4--7-7-4-4-4-4-4-4-7-7-4-4-4-4-4-4---|
|------------------------------------------------------------------------|
|------------------------------------------------------------------------|

|------------------------------------------------------------------------|
|------------------------------------------------------------------------|
|------------------------------------------------------------------------|
|--11-11-7-7-7-7-7-7--9-9-4-4-4-4-4-4--7-7-4-4-4-4-4-4-4-4-4-4-4-4-4-4---|
|------------------------------------------------------------------------|
|------------------------------------------------------------------------|

|------------------------------------------------------------------------|
|------------------------------------------------------------------------|
|------------------------------------------------------------------------|
|--11-11-7-7-7-7-7-7--9-9-4-4-4-4-4-4--7-7-4-4-4-4-4-4-6-6-2-2-2-2-2-2---|
|------------------------------------------------------------------------|
|------------------------------------------------------------------------|


Chorus:

play these bars two times
|------------------------------------------------------------------------|
|------------------------------------------------------------------------|
|------------------------------------------------------------------------|
|------------------------------------------------------------------------|
|-5-5-5-5-5-5-5-5-5-5-5-5-5-5-5-5----------------------------------------|
|---------------------------------2-2-2-2-2-2-2-2-0-0-0-0-0-0-0-0--------|
									  
|------------------------------------------------------------------------|
|------------------------------------------------------------------------|
|------------------------------------------------------------------------|
|------------------------------------------------------------------------|
|-5-5-5-5-5-5-5-5-5-5-5-5-5-5-5-5----------------------------------------|
|---------------------------------2-2-2-2-2-2-2-2-4-4-4-4-4-4-4-4--------|


Verse2

|------------------------------------------------------------------------|
|------------------------------------------------------------------------|
|------------------------------------------------------------------------|
|--11-11-7-7-7-7-7-7--9-9-4-4-4-4-4-4--7-7-4-4-4-4-4-4-4-4-4-4-4-4-4-4---|
|------------------------------------------------------------------------|
|------------------------------------------------------------------------|

|------------------------------------------------------------------------|
|------------------------------------------------------------------------|
|------------------------------------------------------------------------|
|--11-11-7-7-7-7-7-7--9-9-4-4-4-4-4-4--7-7-4-4-4-4-4-4-7-7-4-4-x-x-x-x---|
|------------------------------------------------------------------------|
|------------------------------------------------------------------------|

After this, there is a part with only a bass line, 
but right before the chorus, there are a few powerchords, after which
the chorus begins.

"...the people talk"
|--------------------------x-x-x-x---------------------------------------|
|--------------------------x-x-x-x---------------------------------------|
|--------------------------x-x-x-x-9-9-7--9-9-7--------------------------|
|--------------------------x-x-x-x-9-9-7--9-9-7--------------------------|
|--------------------------x-x-x-x-7-7-5--7-7-5--------------------------|
|--------------------------x-x-x-x---------------------------------------|


Chorus

play these bars two times
|------------------------------------------------------------------------|
|------------------------------------------------------------------------|
|------------------------------------------------------------------------|
|------------------------------------------------------------------------|
|-5-5-5-5-5-5-5-5-5-5-5-5-5-5-5-5----------------------------------------|
|---------------------------------2-2-2-2-2-2-2-2-0-0-0-0-0-0-0-0--------|
									   
|------------------------------------------------------------------------|
|------------------------------------------------------------------------|
|------------------------------------------------------------------------|
|------------------------------------------------------------------------|
|-5-5-5-5-5-5-5-5-5-5-5-5-5-5-5-5----------------------------------------|
|---------------------------------2-2-2-2-2-2-2-2-4-4-4-4-4-4-4-4--------|


Solo

(The second guitar plays the chorus riff)

|------------------------------------------------------------------------|
|------------------------------------------------------------------------|
|------------------------------------------------------------------------|
|-14-12-11-12---14-12-11/12\11/12---14/12-12-11----11--------------------|
|-----------------------------------------------12----12----12-----------|
|--------------------------------------------------------12--------------|

|------------------------------------------------------------------------|
|------------------------------------------------------------------------|
|------------------------------------------------------------------------|
|-14-12-11-12---14-12-11/12\11/12---14/12-12-11----11--------------------|
|-----------------------------------------------12----12-----------------|
|------------------------------------------------------------------------|

|------------------------------------------------------------------------|
|------------------------------------------------------------------------|
|------------------------------------------------------------------------|
|-16----16----18----19----16----16----18----19----16----16----18----19---|
|----16----16----16----16----16----16----16----16----16----16----16------|
|------------------------------------------------------------------------|

|---------------------------------------------------------------------------|
|---------------------------------------------------------------------------|
|-----------16----16----18----18----19----19----19----19----20----20-----21\|
|----19--------14----14----18----18----19----19----19----19----20----20-----|
|-16----19------------------------------------------------------------------|
|---------------------------------------------------------------------------|


Chorus


play the first three bars two times
|------------------------------------------------------------------------| 
|------------------------------------------------------------------------|
|------------------------------------------------------------------------|
|-11-11-------11-11-------11-11-------11-11--------14-14-------14-14-----|
|-------12-12-------12-12-------12-12-------12-12--------16-16-----------|
|------------------------------------------------------------------------| 
									   
|------------------------------------------------------------------------| 
|------------------------------------------------------------------------| 
|------------------------------------------------------------------------| 
|-------14-14-------14-14--------11-11-------11-11-------11-11-----------| 
|-16-16-------16-16-------16-16--------12-12-------12-12-------12-12-----| 
|------------------------------------------------------------------------| 
									   
|------------------------------------------------------------------------| 
|------------------------------------------------------------------------|
|------------------------------------------------------------------------|
|-11-11--------16-16-------16-16--------18-18----------------------------|
|-------12-12--------17-17-------17-17--------19-19----------------------|
|------------------------------------------------------------------------|

|-------------------------------------------------------------------------|
|-------------------------------------------------------------------------|
|-------------------------------------------------------------------------|
|--------------------------------------------------------------------4-4-4|
|--------------------------------------------------------------------4-4-4|
|-5-5-2-2-5-5-2-2-5-5-2-2-5-5-2-2-5-5-2-2-5-5-2-2-5-5-2-2-5-5-2-2~~~-2-2-2|

Well... that's it! And except for the part after the solo, I'm pretty sure it's
quite acurate, and if it's not, it still sounds great if you play along with
the song! ;)

Good luck!
Tap to rate this tab
# A B C D E F G H I J K L M N O P Q R S T U V W X Y Z