Song name
# A B C D E F G H I J K L M N O P Q R S T U V W X Y Z

Customs - Talk More Nonsense tab

################################
#Song: Talk More Nonsense      #
#Band: Customs (Belgian)       #
#Album: Enter the Characters   #
#Tab: Bladerkeuh               #
#Tuning: Standard              #
################################


Hi,

I got a request to tab this song out,
so I did my best :)
For this song, you either have to tremolo
pick, or have an effect pedal with a
tremolo effect.
For those with a ZOOM pedal: I've put the
settings that I found below.
I put the difficulty because of the (possible) tremolo picking,
and the solo with hammer-ons and pull-offs.

For any comments/questions on the tab:
- lemmens_gert@hotmail.com -

Good luck and have fun!

ZOOM settings:
COMP	CP	2	FS	50
WAH	tr	50	50	t9
ZNR	nr	7
DRIVE	Gu	40	8	48
EQ	E9	
EXTRA	Et	2	2	0
MOD	OFF
DELAY	OFF
REVERB	OFF
CONTROL	CT	BU	BD	80


Intro + verse


|--------------------------|
|--------------------------|
|-----------------12-9~----| x3
|---10-7--12-10-7----------|
|-0------------------------|
|--------------------------|

|--------------------------|
|--------------------------|
|--------------------------|
|---10-7--12-10-7-5~~~-----|
|-0------------------------|
|--------------------------|
		                  |tr off
		                  |stop tremolo picking
Play two times


Chorus

In the chorus, I can't hear a clear guitar sound,
so I don't know if there really is any,
but you can play with these powerchords:

|---------------------------|
|---------------------------|
|-----------5---------------|
|-7----5----5---------------|
|-7----5----3---------------|
|-5----3--------------------|
	            | to end the chorus
Just play a little with rythm using palm mute
and open play with these chords, 
and you can find a fun and good sounding chorus
yourself :)

verse

|--------------------------|
|--------------------------|
|-----------------12-9~----| x3
|---10-7--12-10-7----------|
|-0------------------------|
|--------------------------|

|--------------------------|
|--------------------------|
|--------------------------|
|---10-7--12-10-7-5~~~-----|
|-0------------------------|
|--------------------------|
		                  |tr off
		                  |stop tremolo picking
Play two times


Solo

This is kind of an intermediary riff,
quite hard to tab, but I think it's something
like this:

|--------------------------|
|--------------------------|
|--------------------------|
|--------------------------|
|--------------------------|
|-3/5p3h5p3h5p3h5p3-55-55--|
			                             x2
|--------------------------|
|--------------------------|
|--------------------------|
|--------------------------|
|--------------------------|
|-3/5p3h5p3h5p3h5p3-55-----|


Chorus

Again, play with the powerchords ;)



Verse

same as above, play till the end of the song.

That's it, hope you liked it
(rates or comments are welcome ;))
Tap to rate this tab
 
# A B C D E F G H I J K L M N O P Q R S T U V W X Y Z