Song name
# A B C D E F G H I J K L M N O P Q R S T U V W X Y Z

Customs - Harlequins Of Love tab

-------------------------------------------------------------------------------
			     Harlequins of love - Customs
-------------------------------------------------------------------------------
Tabbed by:Kristof Reynders
Email:kristof_reynders@msn.com

Tuning:E


intro 4 x

e|------------------------------7-7-7-5----10-10-10--------------------------|
B|------8-8-8-8-7-7----------8-------------10-10-10--------------------------|
G|/7-9---------------9-9-9-9-------------------------------------------------|
D|---------------------------------------------------------------------------|
A|---------------------------------------------------------------------------|
E|---------------------------------------------------------------------------|



Chords behind intro =

EM - C/G - D - AM


Em
They all line up around me
C               G
The harlequins of love
D                                    Am
They laugh until their ugly painted face starts coming off

Em
Theyíre no hallucinations,
C                G
those harlequins of love
D                         Am
They feed on hesitations and fit me like a glove

Bm,Bm


e|-0-------------------------------------------------------------------------|
B|-1-------------------------------------------------------------------------|
G|-0-------------------------------------------------------------------------|
D|-2-------------------------------------------------------------------------|
A|-2-------------------------------------------------------------------------|
E|-0-------------------------------------------------------------------------|
The harlequins of love are on the

Em/Bm
looooose

e|-0-------------------------------------------------------------------------|
B|-1-------------------------------------------------------------------------|
G|-0-------------------------------------------------------------------------|
D|-2-------------------------------------------------------------------------|
A|-2-------------------------------------------------------------------------|
E|-0-------------------------------------------------------------------------|
And itís by me they like to be

Em
amused

x  x
x  x
x  x
x  x
x  x
x  x

intro repeat x 2


Em
Whatever they may tell you

C              G
The harlequins of love

D                            Am
It mocks your troubled heart or just the the lack there of

Em
Donít think that you could fool them

C              G
The harlequins of love

D                         G
Cause no excuse I made up was ever good enough

Bm,Bm



e|-0-------------------------------------------------------------------------|
B|-1-------------------------------------------------------------------------|
G|-0-------------------------------------------------------------------------|
D|-2-------------------------------------------------------------------------|
A|-2-------------------------------------------------------------------------|
E|-0-------------------------------------------------------------------------|
The harlequins of love are on the

Em/Bm
looooose

e|-0-------------------------------------------------------------------------|
B|-1-------------------------------------------------------------------------|
G|-0-------------------------------------------------------------------------|
D|-2-------------------------------------------------------------------------|
A|-2-------------------------------------------------------------------------|
E|-0-------------------------------------------------------------------------|

And itís by me they like to be

Em/ x
    x
    11
    12
    12
    x

amused

e|-0-------------------------------------------------------------------------|
B|-1-------------------------------------------------------------------------|
G|-0-------------------------------------------------------------------------|
D|-2-------------------------------------------------------------------------|
A|-2-------------------------------------------------------------------------|
E|-0-------------------------------------------------------------------------|
The harlequins of love are on the

Em/Bm
looooose

e|-0-------------------------------------------------------------------------|
B|-1-------------------------------------------------------------------------|
G|-0-------------------------------------------------------------------------|
D|-2-------------------------------------------------------------------------|
A|-2-------------------------------------------------------------------------|
E|-0-------------------------------------------------------------------------|
And itís by me they like to be

Em/ x
    x
    11
    12
    12
    x

amused


G          Bm
ooooaaaahh oooooaaah

G          Am
ooooaaaahh oooooaaah

Em
They all line up around me

C              G
The harlequins of love

D                                   Am
They laugh until their ugly painted face starts comming off

Em
Whatever they may tell you

C              G
The harlequins of love

D                            Am
It mocks your troubled heart or just the the lack there of

Em
Donít think that you could fool them

C              G
The harlequins of love

D                         Am
Cause no excuse I made up was ever good enough

Em

C              G
The harlequins of love

D , Am

Em


C              G
The harlequins of love


e|-----------------------------------------------------------------------------|
B|-----------------------------------------------------------------------------|
G|---/-7-9-9-------------------------------------------------------------------|
D|-----------------------------------------------------------------------------|
A|-----------------------------------------------------------------------------|
E|-----------------------------------------------------------------------------|


took me a long time, i'm aware of that BUT it pays to be patient

99,99% accurate

music from 1 of the best bands of the be,nl,lux,Ge
Tap to rate this tab
 
# A B C D E F G H I J K L M N O P Q R S T U V W X Y Z