Song name
# A B C D E F G H I J K L M N O P Q R S T U V W X Y Z

Customs - Your Roses tab

-------------------------------------------------------------------------------
                             Your roses By Customs
-------------------------------------------------------------------------------
Tabbed by: Kristof Reynders
E-mail:kristof_reynders@msn.com

Tuning:E

Use down/up/down/up strumming pattern  ( rhythm guitar )

e|-------------------------------------------2-------------------------------|
B|--3---3---3---3---3---3------5---5-----x---3-------------------------------|
G|--4---4---4---4---4---4------5---5-----x---4-------------------------------|
D|--4---4---4---4---4---4------5---5-----x---4-------------------------------|
A|--2---2---2---2---2---2------3---3-----x---2-------------------------------|
E|---------------------------------------------------------------------------|

e|---------------------------------------------------------------------------|
B|--3---3---3---3---3---3------3---3---3---3---3---3-------------------------|
G|--4---4---4---4---4---4------4---4---4---4---4---4-------------------------|
D|--4---4---4---4---4---4------4---4---4---4---4---4-------------------------|
A|--2---2---2---2---2---2------2---2---2---2---2---2-------------------------|
E|---------------------------------------------------------------------------|

e|-----------------------------------2---------------------------------------|
B|---7--7--7--7--7--7----8--8-----x--3---------------------------------------|
G|---7--7--7--7--7--7----9--9-----x--4---------------------------------------|
D|---7--7--7--7--7--7----9--9-----x--4---------------------------------------|
A|---5--5--5--5--5--5----7--7-----x--2---------------------------------------|
E|---------------------------------------------------------------------------|

e|---------------------------------------------------------------------------|
B|--3---3---3---3---3---3------3---3---3---3---3---3-------------------------|
G|--4---4---4---4---4---4------4---4---4---4---4---4-------------------------|
D|--4---4---4---4---4---4------4---4---4---4---4---4-------------------------|
A|--2---2---2---2---2---2------2---2---2---2---2---2-------------------------|
E|---------------------------------------------------------------------------|


verse 1 

(i tell you did love when push comes to shove,  its tragic )

e|-------------------------------------------2-------------------------------|
B|--3---3---3---3---3---3------5---5-----x---3-------------------------------|
G|--4---4---4---4---4---4------5---5-----x---4-------------------------------|
D|--4---4---4---4---4---4------5---5-----x---4-------------------------------|
A|--2---2---2---2---2---2------3---3-----x---2-------------------------------|
E|---------------------------------------------------------------------------|

e|---------------------------------------------------------------------------|
B|--3---3---3---3---3---3------3---3---3---3---3---3-------------------------|
G|--4---4---4---4---4---4------4---4---4---4---4---4-------------------------|
D|--4---4---4---4---4---4------4---4---4---4---4---4-------------------------|
A|--2---2---2---2---2---2------2---2---2---2---2---2-------------------------|
E|---------------------------------------------------------------------------|

and yet we can try as husbands and wifes , its magic

e|-----------------------------------2---------------------------------------|
B|---7--7--7--7--7--7----8--8-----x--3---------------------------------------|
G|---7--7--7--7--7--7----9--9-----x--4---------------------------------------|
D|---7--7--7--7--7--7----9--9-----x--4---------------------------------------|
A|---5--5--5--5--5--5----7--7-----x--2---------------------------------------|
E|---------------------------------------------------------------------------|

e|---------------------------------------------------------------------------|
B|--3---3---3---3---3---3------3---3---3---3---3---3-------------------------|
G|--4---4---4---4---4---4------4---4---4---4---4---4-------------------------|
D|--4---4---4---4---4---4------4---4---4---4---4---4-------------------------|
A|--2---2---2---2---2---2------2---2---2---2---2---2-------------------------|
E|---------------------------------------------------------------------------|



(swimming in lane the draws are mistakes, its classic )

e|-------------------------------------------2-------------------------------|
B|--3---3---3---3---3---3------5---5-----x---3-------------------------------|
G|--4---4---4---4---4---4------5---5-----x---4-------------------------------|
D|--4---4---4---4---4---4------5---5-----x---4-------------------------------|
A|--2---2---2---2---2---2------3---3-----x---2-------------------------------|
E|---------------------------------------------------------------------------|

e|---------------------------------------------------------------------------|
B|--3---3---3---3---3---3------3---3---3---3---3---3-------------------------|
G|--4---4---4---4---4---4------4---4---4---4---4---4-------------------------|
D|--4---4---4---4---4---4------4---4---4---4---4---4-------------------------|
A|--2---2---2---2---2---2------2---2---2---2---2---2-------------------------|
E|---------------------------------------------------------------------------|

( so low and behold we're catching a cold, its epic

e|-----------------------------------2---------------------------------------|
B|---7--7--7--7--7--7----8--8-----x--3---------------------------------------|
G|---7--7--7--7--7--7----9--9-----x--4---------------------------------------|
D|---7--7--7--7--7--7----9--9-----x--4---------------------------------------|
A|---5--5--5--5--5--5----7--7-----x--2---------------------------------------|
E|---------------------------------------------------------------------------|

e|---------------------------------------------------------------------------|
B|--3---3---3---3---3---3------3---3---3---3---3---3-------------------------|
G|--4---4---4---4---4---4------4---4---4---4---4---4-------------------------|
D|--4---4---4---4---4---4------4---4---4---4---4---4-------------------------|
A|--2---2---2---2---2---2------2---2---2---2---2---2-------------------------|
E|---------------------------------------------------------------------------|


************************************

| /   slide up
| \   slide down
| h   hammer-on
| p   pull-off
| ~   vibrato
| +   harmonic
| x   Mute note
| b   Bend
| pb  Pre-bend
| br  Bend release
| pbr Pre-bend release
| brb Bend release bend

************************************
Tap to rate this tab
# A B C D E F G H I J K L M N O P Q R S T U V W X Y Z