Song name
# A B C D E F G H I J K L M N O P Q R S T U V W X Y Z

Cute Is What We Aim For - Hipbones And Microphones tab

Help us improve GuitareTab! Take a short survey!
	     Hipbones and Microphones - Cute is what we aim for

Tabbed by: Shooshi123
Email: Shooshi_123@hotmail.co.uk
Tuning: Standard

This tab isn't 100% correct but it does sound okay. 
First tab so be kind, and in comparison to the other version i think this one sounds better. 
Feedback - email me.

UPDATE: I've changed the verse and chorus now sounds better.


Intro/Verse

e|-----------------------------------------------------------|
B|-----------------------------------------------------------|
G|-----------12-12-11---------7-7-6--------------------------|X6
D|-----------------------------------------------------------|
A|-----------------------------------------------------------|
E|----12-------------------7---------------------------------|

"Give them hell..."

e|---------------------------------------------------------------|
B|---------------------------------------------------------------|
G|---------------------------------------------------------------|
D|----55555555-12121212-7777-55555555-77777777-------------------|
A|----55555555-12121212-7777-55555555-77777777-------------------|
E|----33333333-10101010-5555-33333333-55555555-------------------|


"Chatting way out on display..."
e|----------------------------------------------------------|
B|----------------------------------------------------------|
G|----------------------------------------------------------|
D|---99-999-9--1212-121212-12-55-555-5-77-777-7-------------|X2
A|---99-999-9--1212-121212-12-55-555-5-77-777-7-------------|
E|---77-777-7--1010-101010-10-33-333-3-55-555-5-------------|

Verse 2

e|-----------------------------------------------------------|
B|-----------------------------------------------------------|
G|-----------12-12-11---------7-7-6--------------------------|X4
D|-----------------------------------------------------------|
A|-----------------------------------------------------------|
E|----12-------------------7---------------------------------|

"Give them hell..."

e|---------------------------------------------------------------|
B|---------------------------------------------------------------|
G|---------------------------------------------------------------|
D|----55555555-12121212-7777-55555555-77777777-------------------|
A|----55555555-12121212-7777-55555555-77777777-------------------|
E|----33333333-10101010-5555-33333333-55555555-------------------|

Repeat chorus X1

"la,la,la lavish lifestyle..."

e|----------------------------------------------------------|
B|----------------------------------------------------------|
G|----------------------------------------------------------|
D|---99-999-9--1212-121212-12-55-555-5-77-777-7-------------|X2
A|---99-999-9--1212-121212-12-55-555-5-77-777-7-------------|
E|---77-777-7--1010-101010-10-33-333-3-55-555-5-------------|

Breakdown bit.

e|-----------------------------------------------------------|
B|-----------------------------------------------------------|
G|--5----7----9----12----5----7----9----12----5----7---------|
D|--5----7----9----12----5----7----9----12----5----7---------|
E|--3~---5~---7~---10~---3~---5~---7~---10~---3~---5~--------|


"Hipbones and microphones..."
e|---------------------------------------------------------------|
B|---------------------------------------------------------------|
G|---------------------------------------------------------------|
D|----55555555-12121212-7777-55555555-77777777-------------------|
A|----55555555-12121212-7777-55555555-77777777-------------------|
E|----33333333-10101010-5555-33333333-55555555-------------------|

| /  slide up
| \  slide down
| h  hammer-on
| p  pull-off
| ~  vibrato
| +  harmonic
| x  Mute note
===============================================================================
Related for Hipbones And Microphones tab