Song name
# A B C D E F G H I J K L M N O P Q R S T U V W X Y Z

Cute Is What We Aim For - Risque Live Acoustic tab

ok they play this live everytime i think this is the real way to play the song

guitar 1 intro dont have to do this plucking
e|--------------------------------|
B|-0~-------0~----0---0~-----0~---|
G|-9~---9---4~---6-6--2~-----4~---|
D|-9~--9-9--6~--6---6-2~-----4~---|
A|-7~-7-----4~-4------0~-----2~---|
E|--------------------------------|

guitar 2 intro optional just mute

guitar 1 2nd part intro/verse play 8 times
e|--------------------|
B|---0----0----0------|
G|--4-4--4-4--4-4-----|
D|--------------------|
A|-0----2---------4-2-|
E|-----------0--------|

guitar 2nd part intro/verse play 7 times
e|------------------------------|
B|------------------------------|
G|--9-8-9-----8-9-13-11-9/11/9--|
D|------------------------------|
A|------------------------------|
E|------------------------------|
then
e|------|
B|------|
G|9999--
D|9999--
A|7777--
E|------

chorus guitar 1 not to sure
e|--------------------------------------------|
B|--5-5-5-5-5-5-5-5--12-12-12-12--10-10-10-10-|
G|--------------------------------------------|
D|--------------------------------------------|
A|--------------------------------------------|
E|--------------------------------------------|

e|---------------------------------------------|
B|--5-5-5-5-5-5-5-5--12-12-12-12--10-10-10-10--|
G|---------------------------------------------|
D|---------------------------------------------|
A|---------------------------------------------|
E|---------------------------------------------|

e|-----------------------------------------------------|
B|--12-12-12-12-12-12-12-12--15-15-15-15--14-14-14-14--|
G|-----------------------------------------------------|
D|-----------------------------------------------------|
A|-----------------------------------------------------|
E|-----------------------------------------------------|

e|--------------------------------------------|
B|--10-10-10-10-10-10-10-10--5-5-5-5-5-5-5-5--|
G|--------------------------------------------|
D|--------------------------------------------|
A|--------------------------------------------|
E|--------------------------------------------|

guitar 2
e|-------------------------------------------------------------------------|
B|--0000000000000000--0000000000000000--0000000000000000--0000000000000000-|
G|--9999999999999999--7777777777777777--2222222222222222--4444444444444444-|
D|--9999999999999999--7777777777777777--2222222222222222--4444444444444444-|
A|--7777777777777777--5555555555555555--0000000000000000--2222222222222222-|
E|-------------------------------------------------------------------------|

same for second verse and then same chorus except play it twice

guitar 1 bridge again not to sure
e|---------------------------------------|
B|--6666666666666666--8888888888888888---|
G|---------------------------------------|
D|---------------------------------------|
A|---------------------------------------|
E|---------------------------------------|
32 times if u dont want to count
e|------------------------------------------------------------------
B|--1010101010101010101010101010101010101010101010101010101010101010
G|------------------------------------------------------------------|
D|------------------------------------------------------------------|
A|------------------------------------------------------------------|
E|------------------------------------------------------------------|

e|---------------------------------------------------------------------|
B|--6666666666666666--888888888888888-10101010101010101010101010101010-|
G|---------------------------------------------------------------------|
D|---------------------------------------------------------------------|
A|---------------------------------------------------------------------|
E|---------------------------------------------------------------------|
idk somewere around here
e|------------------------------------|
B|--15151515151515151515151515151515--|
G|------------------------------------|
D|------------------------------------|
A|------------------------------------|
E|------------------------------------|

guitar 2 bridge play twice
e|--------------------------------------------------------|
B|--0000000000000000--0000000000000000--0000000000000000--|
G|--9999999999999999--4444444444444444--2222222222222222--|
D|--9999999999999999--4444444444444444--2222222222222222--|
A|--7777777777777777--2222222222222222--0000000000000000--|
E|--------------------------------------------------------|

e|-------------------|
B|--000000000000000--|
G|--444444444444444--|
D|--444444444444444--|
A|--222222222222222--|
E|-------------------|

medicaly speaking
guitar 1's next part just palm mute x97

guitar 2 palm mute
e|----------------------|
B|--0000-0000-0000-0-0--|
G|--4444-4444-4444-4-4--|
D|--0000-0000-0000-0-0--|
A|--0000-2222-0000-4-2--|
E|------------0000------|

ive got birds in my ear
both guitars
e|-------------------------------|
B|--0~---0~----------------------|
G|--9~---7~---22222222-44444444--|
D|--9~---7~---22222222-44444444--|
A|--7~---5~---00000000-22222222--|
E|-------------------------------|
              ........ ........

then chorus play twice
Tap to rate this tab
# A B C D E F G H I J K L M N O P Q R S T U V W X Y Z