Song name
# A B C D E F G H I J K L M N O P Q R S T U V W X Y Z

Cute Is What We Aim For - Through To You tab

Okay so this is a really complex song to get.  You have Jeff Czum playing killer lead so 
hope this doesn't sound to terrible.

Intro:


e-8------| Just strum this whatever
B-7------|
G-5------|
D--------|
A--------|
E--------|

Verse:

e-------------------------------------|
B-------------------------------------|
G-------------------4-4-4-44-5-5-5-55-|
D-5-5-5-55-2-2-2-22-4-4-4-44-5-5-5-55-|
A-5-5-5-55-2-2-2-22-2-2-2-22-3-3-3-33-|
E-3-3-3-33-0-0-0-00-------------------|

Chorus:

e--------------------|(repeated how many times idk)
B--------------------|
G------4444----------|
D-5555-4444-22222222-|
A-5555-2222-22222222-|
E-3333------00000000-|

Thats all i have so have fun with it maybe add some more to it
Tap to rate this tab
# A B C D E F G H I J K L M N O P Q R S T U V W X Y Z