Song name
# A B C D E F G H I J K L M N O P Q R S T U V W X Y Z

Cute Is What We Aim For - Lyrical Lies tab

Pretty sure this is right, but for the whole song whether or not you mute the D string 
up to you, but im gonna tab it unmuted. For the strumming on guitar 2 listen to the song, 
can hear its slightly different sometimes, and its timed different than guitar 1 in parts.


TUNING: STANDARD

INTRO - (guitar 1)
e---------------------------------------------|
B---------------------------------------------|
G-----7---4-----2---6-----7---4-----2---6-----|
D-----0---0-----0---0-----0---0-----0---0-----|
A-----0---0-----0---0-----0---0-----0---0-----|
E-----7---3-----2---5-----7---3-----2---5-----|

(guitar 2)
e--------------------------------------------------------------------------|
B-------5-5-5-5-5-5-5-5-7-7-7-7-7-7-7-7-5-5-5-5-5-5-5-5-7-7-7-7-7-7-7-7----|
G-------7-7-7-7-7-7-7-7-7-7-7-7-7-7-7-7-7-7-7-7-7-7-7-7-7-7-7-7-7-7-7-7----|
D--------------------------------------------------------------------------|
A--------------------------------------------------------------------------|
E--------------------------------------------------------------------------|

"an old man...dead he said"   (guitar 1) (X2)
e---------------------------------------------|
B---------------------------------------------|
G-----7---4-----2---6-----7---4-----2---6-----|
D-----0---0-----0---0-----0---0-----0---0-----|
A-----0---0-----0---0-----0---0-----0---0-----|
E-----7---3-----2---5-----7---3-----2---5-----|

(guitar 2) (X2)
e--------------------------------------------------------------------------|
B-------5-5-5-5-5-5-5-5-7-7-7-7-7-7-7-7-5-5-5-5-5-5-5-5-7-7-7-7-7-7-7-7----|
G-------7-7-7-7-7-7-7-7-7-7-7-7-7-7-7-7-7-7-7-7-7-7-7-7-7-7-7-7-7-7-7-7----|
D--------------------------------------------------------------------------|
A--------------------------------------------------------------------------|
E--------------------------------------------------------------------------|


"I met a woman...talk" (guitar 1 and 2) (X2)
e------------------------------------------------------|
B------------------------------------------------------|
G-----4-4-4-4-4-4-4-4/6-6-6-6-6-6-6-6------------------|
D-----0-0-0-0-0-0-0-0/0-0-0-0-0-0-0-0------------------|
A-----0-0-0-0-0-0-0-0/0-0-0-0-0-0-0-0------------------|
E-----3-3-3-3-3-3-3-3/5-5-5-5-5-5-5-5------------------|


"If I had her....do the same" (guitar 1) (X4)
e------------------------------------------------------|
B------------------------------------------------------|
G-----7-7-7-4-4-4-4-4-2-2-2-6-6-6-6-6------------------|
D-----0-0-0-0-0-0-0-0-0-0-0-0-0-0-0-0------------------|
A-----0-0-0-0-0-0-0-0-0-0-0-0-0-0-0-0------------------|
E-----7-7-7-3-3-3-3-3-2-2-2-5-5-5-5-5------------------|

(guitar 2)come in after guitar 1 goes thru above once, then this X3
e------------------------------------------------------|
B-------5-5-5-5-5-5-5-5-7-7-7-7-7-7-7-7----------------|
G-------7-7-7-7-7-7-7-7-7-7-7-7-7-7-7-7----------------|
D------------------------------------------------------|
A------------------------------------------------------|
E------------------------------------------------------|


"But I can't blame...sing her this" (guitar 1 and 2)(X2)
e------------------------------------------------------|
B------------------------------------------------------|
G-----4-4-4-4-4-4-4-4/6-6-6-6-6-6-6-6------------------|
D-----0-0-0-0-0-0-0-0/0-0-0-0-0-0-0-0------------------|
A-----0-0-0-0-0-0-0-0/0-0-0-0-0-0-0-0------------------|
E-----3-3-3-3-3-3-3-3/5-5-5-5-5-5-5-5------------------|

CHORUS - guitar 1 (X2)
e----------------------------------------------------------------------|
B----------------------------------------------------------------------|
G----7-7-7-7-7-7-7-7-6-6-6-6-6-6-6-6-4-4-4-4-4-4-4-4-6-6-6-6-6-6-6-6---|
D----0-0-0-0-0-0-0-0-0-0-0-0-0-0-0-0-0-0-0-0-0-0-0-0-0-0-0-0-0-0-0-0---|
A----0-0-0-0-0-0-0-0-0-0-0-0-0-0-0-0-0-0-0-0-0-0-0-0-0-0-0-0-0-0-0-0---|
E----7-7-7-7-7-7-7-7-5-5-5-5-5-5-5-5-3-3-3-3-3-3-3-3-5-5-5-5-5-5-5-5---|

(guitar 2) (X2)
e----------------------------------------------------------------------|
B----------------------------------------------------7-7-7-7-7-7-7-7---|
G----7-7-7-7-7-7-7-7-6-6-6-6-6-6-6-6-4-4-4-4-4-4-4-4-7-7-7-7-7-7-7-7---|
D----0-0-0-0-0-0-0-0-0-0-0-0-0-0-0-0-0-0-0-0-0-0-0-0-------------------|
A----0-0-0-0-0-0-0-0-0-0-0-0-0-0-0-0-0-0-0-0-0-0-0-0-------------------|
E----7-7-7-7-7-7-7-7-5-5-5-5-5-5-5-5-3-3-3-3-3-3-3-3-------------------|

"And I think...never said" (guitar 1) (X2)
e---------------------------------------------|
B---------------------------------------------|
G-----7---4-----2---6-----7---4-----2---6-----|
D-----0---0-----0---0-----0---0-----0---0-----|
A-----0---0-----0---0-----0---0-----0---0-----|
E-----7---3-----2---5-----7---3-----2---5-----|

(guitar 2)  (X2)
e--------------------------------------------------------------------------|
B-------5-5-5-5-5-5-5-5-7-7-7-7-7-7-7-7-5-5-5-5-5-5-5-5-7-7-7-7-7-7-7-7----|
G-------7-7-7-7-7-7-7-7-7-7-7-7-7-7-7-7-7-7-7-7-7-7-7-7-7-7-7-7-7-7-7-7----|
D--------------------------------------------------------------------------|
A--------------------------------------------------------------------------|
E--------------------------------------------------------------------------|


"It's just a....in my mind" (guitar 1 and 2) (X2)
e------------------------------------------------------|
B------------------------------------------------------|
G-----4-4-4-4-4-4-4-4/6-6-6-6-6-6-6-6------------------|
D-----0-0-0-0-0-0-0-0/0-0-0-0-0-0-0-0------------------|
A-----0-0-0-0-0-0-0-0/0-0-0-0-0-0-0-0------------------|
E-----3-3-3-3-3-3-3-3/5-5-5-5-5-5-5-5------------------|

CHORUS - guitar 1 (X2)
e----------------------------------------------------------------------|
B----------------------------------------------------------------------|
G----7-7-7-7-7-7-7-7-6-6-6-6-6-6-6-6-4-4-4-4-4-4-4-4-6-6-6-6-6-6-6-6---|
D----0-0-0-0-0-0-0-0-0-0-0-0-0-0-0-0-0-0-0-0-0-0-0-0-0-0-0-0-0-0-0-0---|
A----0-0-0-0-0-0-0-0-0-0-0-0-0-0-0-0-0-0-0-0-0-0-0-0-0-0-0-0-0-0-0-0---|
E----7-7-7-7-7-7-7-7-5-5-5-5-5-5-5-5-3-3-3-3-3-3-3-3-5-5-5-5-5-5-5-5---|

(guitar 2) (X2)
e----------------------------------------------------------------------|
B----------------------------------------------------7-7-7-7-7-7-7-7---|
G----7-7-7-7-7-7-7-7-6-6-6-6-6-6-6-6-4-4-4-4-4-4-4-4-7-7-7-7-7-7-7-7---|
D----0-0-0-0-0-0-0-0-0-0-0-0-0-0-0-0-0-0-0-0-0-0-0-0-------------------|
A----0-0-0-0-0-0-0-0-0-0-0-0-0-0-0-0-0-0-0-0-0-0-0-0-------------------|
E----7-7-7-7-7-7-7-7-5-5-5-5-5-5-5-5-3-3-3-3-3-3-3-3-------------------|


BRIDGE - guitar 1 and 2 (X4)
e-----------------------------------------------------------|
B-----------------------------------------------------------|
G---7-7-7-7-7-7-7-7-4-4-4-4-4-4-4-4-11-11-11-11-11-11-11-11-|
D---0-0-0-0-0-0-0-0-0-0-0-0-0-0-0-0--0--0--0--0--0--0--0--0-|
A---0-0-0-0-0-0-0-0-0-0-0-0-0-0-0-0--0--0--0--0--0--0--0--0-|
E---7-7-7-7-7-7-7-7-3-3-3-3-3-3-3-3-10-10-10-10-10-10-10-10-|

e--------------------|
B--------------------|
G--6-6-6-6-6-6-6-6---|
D--0-0-0-0-0-0-0-0---|
A--0-0-0-0-0-0-0-0---|
E--5-5-5-5-5-5-5-5---|

CHORUS X2

OUTRO - guitar 1 and 2 (fades off in the end)
e-----------------------------------------------------------|
B-----------------------------------------------------------|
G---7-7-7-7-7-7-7-7-4-4-4-4-4-4-4-4-11-11-11-11-11-11-11-11-|
D---0-0-0-0-0-0-0-0-0-0-0-0-0-0-0-0--0--0--0--0--0--0--0--0-|
A---0-0-0-0-0-0-0-0-0-0-0-0-0-0-0-0--0--0--0--0--0--0--0--0-|
E---7-7-7-7-7-7-7-7-3-3-3-3-3-3-3-3-10-10-10-10-10-10-10-10-|

e--------------------|
B--------------------|
G--6-6-6-6-6-6-6-6---|
D--0-0-0-0-0-0-0-0---|
A--0-0-0-0-0-0-0-0---|
E--5-5-5-5-5-5-5-5---|

comments, concerns email me at scottyknowsnot@live.com
Tap to rate this tab
 
# A B C D E F G H I J K L M N O P Q R S T U V W X Y Z