Song name
# A B C D E F G H I J K L M N O P Q R S T U V W X Y Z

Cute Is What We Aim For - Teasing To Please tab

Artist: Cute Is What We Aim For
Song: Teasing To Please (Left Side, Strong Side)
Album: The Same Old Blood Rush With A New Touch
Tabbed By: GuitarKid98


This is the correct version with both guitars. (Rhythm and Lead)


Tuning:EADGBe

INTRO/VERSE 1
Rhythm guitar plays the intro. Both guitars play the verse.

e|-------------------------------------------------------------------------|
B|--10-10-10-10--10-10-10-10--12-12-12-12--10-10-10-10---------------------|
G|---x--x--x--x---x--x--x--x---x--x--x--x---x--x--x--x---------------------|
D|---x--x--x--x---x--x--x--x---x--x--x--x---x--x--x--x---------------------|
A|--10-10-10-10--10-10-10-10--10-10-10-10--10-10-10-10---------------------|
E|-------------------------------------------------------------------------|

e|-------------------------------------------------------------------------|
B|--10-10-10-10--10-10-10-10--12-12-12-12--10-10-10-10---------------------|
G|---x--x--x--x---x--x--x--x---x--x--x--x---x--x--x--x---------------------|
D|---x--x--x--x---x--x--x--x---x--x--x--x---x--x--x--x---------------------|
A|---9--9--9--9---9--9--9--9---9--9--9--9---9--9--9--9---------------------|
E|-------------------------------------------------------------------------|

e|-------------------------------------------------------------------------|
B|--8-8-8-8--8-8-8-8--10-10-10-10---8-8-8-8--------------------------------|
G|--x-x-x-x--x-x-x-x---x--x--x--x---x-x-x-x--------------------------------|
D|--x-x-x-x--x-x-x-x---x--x--x--x---x-x-x-x--------------------------------|
A|--7-7-7-7--7-7-7-7---7--7--7--7---7-7-7-7--------------------------------|
E|-------------------------------------------------------------------------|

e|-------------------------------------------------------------------------|
B|--8-8-8-8--8-8-8-8--8-8-8-8--8-8-8-8-------------------------------------|
G|--x-x-x-x--x-x-x-x--x-x-x-x--x-x-x-x-------------------------------------|
D|--x-x-x-x--x-x-x-x--x-x-x-x--x-x-x-x-------------------------------------|
A|--x-x-x-x--x-x-x-x--x-x-x-x--x-x-x-x-------------------------------------|
E|--8-8-8-8--8-8-8-8--7-7-7-7--7-7-7-7-------------------------------------|

Lead guitar (This is heard in the intro)

e|-------------------------------------------------------------------------|
B|--10--8--8--8------------------------------------------------------------|
G|-------------------------------------------------------------------------|
D|-------------------------------------------------------------------------|
A|-------------------------------------------------------------------------|
E|-------------------------------------------------------------------------|

PRE-CHORUS 1
"Cause conflict and make your top pick..." 
Rhythm guitar (Play twice)

e|-----------------------------------|
B|-10-12-10-10--12-10-8--10-8-8--8-8-|
G|-----------------------------------|
D|-----------------------------------|
A|-10-10-10--9---9--9-7--7--7--------|
E|----------------------------8--7-8-|

CHORUS 1
Both guitars (Play twice)

e|-------------------------|----|
B|-------------------------|----|
G|----7-----5-----7-----5--|----|
D|-5--7--2--5--5--7--2--5--|-5~-|
A|-5--5--2--3--5--5--2--3--|-5~-|
E|-3-----0-----3-----0-----|-3~-|

VERSE 2 
Both guitars

e|-------------------------------------------------------------------------|
B|-------------------------------------------------------------------------|
G|-12121212-12-12-12-12121212-12121212-12121212-12-12-12-12121212-12121212-|
D|-12121212-12-12-12-12121212-12121212-12121212-12-12-12-12121212-12121212-|
A|-10101010-10-10-10-10101010-10101010--9-9-9-9--9--9--9--9-9-9-9--9-9-9-9-|
E|-------------------------------------------------------------------------|
PM: * * * *  *  *  *  * * * *  * * * *  * * * *  *  *  *  * * * *  * * * *

e|-----------------------------------------------|
B|--------------------------------------------5*-|
G|-9999-9999-7777-7777------------------------5*-|
D|-9999-9999-7777-7777-10101010-10-10-10-5555-5*-|
A|-7777-7777-5555-5555-10101010-10-10-10-5555----|
E|----------------------8-8-8-8--8--8--8-3333----|
PM:**** **** **** ****  * * * *  *  *  * ****

e|----------------------------------------------------|
B|-10-10-10-10--10-10-10-10--12-12-12-12--10-10-10-10-|
G|--x--x--x--x---x--x--x--x---x--x--x--x---x--x--x--x-|
D|--x--x--x--x---x--x--x--x---x--x--x--x---x--x--x--x-|
A|-10-10-10-10--10-10-10-10--10-10-10-10--10-10-10-10-|
E|----------------------------------------------------|

e|-----------------------------------------------------|
B|--10-10-10-10--10-10-10-10--12-12-12-12--10-10-10-10-|
G|---x--x--x--x---x--x--x--x---x--x--x--x---x--x--x--x-|
D|---x--x--x--x---x--x--x--x---x--x--x--x---x--x--x--x-|
A|---9--9--9--9---9--9--9--9---9--9--9--9---9--9--9--9-|
E|-----------------------------------------------------|

e|-----------------------------------------------------|
B|--8-8-8-8--8-8-8-8--10-10-10-10---8-8-8-8------------|
G|--x-x-x-x--x-x-x-x---x--x--x--x---x-x-x-x------------|
D|--x-x-x-x--x-x-x-x---x--x--x--x---x-x-x-x------------|
A|--7-7-7-7--7-7-7-7---7--7--7--7---7-7-7-7------------|
E|-----------------------------------------------------|

e|-----------------------------------------------------|
B|--8-8-8-8--8-8-8-8--8-8-8-8--8-----------------------|
G|--x-x-x-x--x-x-x-x--x-x-x-x--x-----------------------|
D|--x-x-x-x--x-x-x-x--x-x-x-x--x-----------------------|
A|--x-x-x-x--x-x-x-x--x-x-x-x--x-----------------------|
E|--8-8-8-8--8-8-8-8--7-7-7-7--7-----------------------|

CHORUS 2
Both guitars (Play Twice)

e|-------------------------|
B|-------------------------|
G|----7-----5-----7-----5--|
D|-5--7--2--5--5--7--2--5--|
A|-5--5--2--3--5--5--2--3--|
E|-3-----0-----3-----0-----|

BRIDGE/SOLO (Play during the solo)
Rhythm Guitar

e|-------------------------------------------------------------------------|
B|--8--10--12--------------------------------------------------------------|
G|--x---x---x--------------------------------------------------------------|
D|--x---x---x--------------------------------------------------------------|
A|--7--10--10--------------------------------------------------------------|
E|-------------------------------------------------------------------------|

BRIDGE/SOLO
Lead Guitar 

e|-------------------------------------------------------------------------|
B|-------------------------------------------------------------------------|
G|--12--14-16-(Play Four Times)-12~----------------------------------------|
D|-------------------------------------------------------------------------|
A|-------------------------------------------------------------------------|
E|-------------------------------------------------------------------------|

BRIDGE/SOLO (Ending)
Rhythm Guitar

e|-------------------------------------------------------------------------|
B|--8-8-8-8----------------------------------------------------------------|
G|--x-x-x-x----------------------------------------------------------------|
D|--x-x-x-x----------------5~----------------------------------------------|
A|--7-7-7-7--(Play Twice)--5~----------------------------------------------|
E|-------------------------3~----------------------------------------------|

PRE-CHORUS 2
"Cause conflict and make your top pick..." 
Rhythm guitar (Play twice)

e|-----------------------------------|
B|-10-12-10-10--12-10-8--10-8-8--8-8-|
G|-----------------------------------|
D|-----------------------------------|
A|-10-10-10--9---9--9-7--7--7--------|
E|----------------------------8--7-8-|

CHORUS 3
Both guitars (Play four times)

e|-------------------------|----|
B|-------------------------|----|
G|----7-----5-----7-----5--|----|
D|-5--7--2--5--5--7--2--5--|-5~-|
A|-5--5--2--3--5--5--2--3--|-5~-|
E|-3-----0-----3-----0-----|-3~-|


Please enjoy.
Tap to rate this tab
# A B C D E F G H I J K L M N O P Q R S T U V W X Y Z