Song name
# A B C D E F G H I J K L M N O P Q R S T U V W X Y Z

Cute Is What We Aim For - Hip Hop At Ihop tab

there r actually 2 guitars in thi song i dont know both of them.i alos dont know any plucking.

intro/verse
guitar 1
e|333-----333-----333-----333-3-3
B|333-----333-----333-----333-3-3
G|000-----000-----000-----000-0-0
D|000-----222-----000-----222-2-2
A|222-----333-----222-----333-3-3
E|333-----xxx-----xxx-----xxx-x-x

guitar 2(palm muted)
e|3-3-3-3-3-3-3-3-3-3-3-3-3-3-3-3-3-3-3-3-3-3-3-3-3-3-3-3-3-3-3-3
B|3-3-3-3-3-3-3-3-3-3-3-3-3-3-3-3-3-3-3-3-3-3-3-3-3-3-3-3-3-3-3-3
G|0-0-0-0-0-0-0-0-0-0-0-0-0-0-0-0-0-0-0-0-0-0-0-0-0-0-0-0-0-0-0-0
D|0-0-0-0-0-0-0-0-2-2-2-2-2-2-2-2-0-0-0-0-0-0-0-0-2-2-2-2-2-2-2-2
A|2-2-2-2-2-2-2-2-3-3-3-3-3-3-3-3-2-2-2-2-2-2-2-2-3-3-3-3-3-3-3-3
E|3-3-3-3-3-3-3-3-x-x-x-x-x-x-x-x-x-x-x-x-x-x-x-x-x-x-x-x-x-x-x-x

chorus
guitar 1(idk guitar 2 hes plucking somthing)
e|3-3-333-3-3-333-3-33333333-3-33333333
B|3-3-333-3-3-333-3-33333333-3-33333333
G|0-0-000-0-0-000-2-00000000-2-00000000
D|2-2-222-0-0-000-0-00000000-0-00000000
A|3-3-333-2-2-222-0-22222222-0-22222222
E|x-x-xxx-x-x-xxx-2-33333333-2-33333333
Tap to rate this tab
# A B C D E F G H I J K L M N O P Q R S T U V W X Y Z