Song name
# A B C D E F G H I J K L M N O P Q R S T U V W X Y Z

Cute Is What We Aim For - I Put The Metro In Metronome tab

--------------------------------------------------------
Cute is What We Aim For - I Put the 'Metro' in Metronome
--------------------------------------------------------
tabbed by: Brad Barrowes
Standard Tuning


Verse 1
E|--4------2------0------2------|
B|--4------2------0------4------|
G|--4------3------1------4------|  x2
D|--6------4------2------4------|
A|--6------4------2------2------|
E|--4------2------0------2------|


Bridge
E|----------------2----|         |--2----|
B|----------------4----|         |--2----|
G|----------------4----|  x2     |--3----|
D|----6------2----4----|         |--4----|
A|------6------2--2----|         |--4----|
E|--4------0------2----|         |--2----|


Chorus
e|--2--------0--------4----2----0----2----|
B|--4--------0--------4----2----0----2----|
G|--4--------1--------4----3----1----3----|  x2
D|--4--------2--------6----4----2----4----|
A|--2--------2--------6----4----2----4----|
E|--2--------0--------4----2----0----2----|


Verse 2
E|------------------------------|
B|------------------------------|
G|-----------------------4------|
D|--6------4------2------4------|
A|--6------4------2------2------|
E|--4------2------0-------------|

    *             * 
E|--4------2------0------2------|   *Strum chord once then mute
B|--4------2------0------4------|         
G|--4------3------1------4------|
D|--6------4------2------4------|
A|--6------4------2------2------|
E|--4------2------0------2------|


Bridge
E|----------------2----|         |--2----0----|
B|----------------4----|         |--2----0----|
G|----------------4----|  x2     |--3----1----|
D|----6------2----4----|         |--4----2----|
A|------6------2--2----|         |--4----2----|
E|--4------0------2----|         |--2----0----|


Chorus
e|--2--------0--------4----2----0----2----|
B|--4--------0--------4----2----0----2----|
G|--4--------1--------4----3----1----3----|  x2
D|--4--------2--------6----4----2----4----|
A|--2--------2--------6----4----2----4----|
E|--2--------0--------4----2----0----2----|


Breakdown
E|--4------2------0------2------|
B|--4------2------0------4------|       
G|--4------3------1------4------|  x2
D|--6------4------2------4------|
A|--6------4------2------2------|
E|--4------2------0------2------|

E|----------------2----|
B|----------------2----|
G|----------------3----|
D|----6------2----4----|
A|------6------2--4----|
E|--4------0------2----|


Chorus                          %
e|--2--------0--------4----2----0----2----|    %Stop playing here the 2nd
B|--4--------0--------4----2----0----2----|         time through
G|--4--------1--------4----3----1----3----|  x2
D|--4--------2--------6----4----2----4----|
A|--2--------2--------6----4----2----4----|
E|--2--------0--------4----2----0----2----|
Tap to rate this tab
# A B C D E F G H I J K L M N O P Q R S T U V W X Y Z