Song name
# A B C D E F G H I J K L M N O P Q R S T U V W X Y Z

Cute Is What We Aim For - Curse Of Curves tab

I did lots of corrections and added guitar 2 in so it should be good to go...You can 
my ug profile somethingcool4u for questions and comments. I wanna make this 100% correct so 
input means alot!!!! Really easy song and fun to play along with.
standard tuning EADGBe
Guitar 1:

Verse:
 "Ive got the gift of..."       This is after the x4
|-----------------------|   |------------------|
|-----------------------|   |------------------|
|-10-----9--------------|   |------------------|
|-10-x8-10-x8-7----8----|x4 |------8-----------|
|--8-----8----8-x8-8-x8-|   |------8-x4--------|
|------------(5)--(6)---|   |------6-----------|
   .     .    .    .

Guitar 2:
|---------------------|   |--------|
|---------------------|   |--------|
|-7----5---------3----|   |-3------|
|-7-x8-5-x8-3----3-x8-|x4 |-3-x4---|
|-5----3----3-x8-1----|   |-1------|
|-----------1---------|   |--------|
  .    .    .    .

Pre-Chorus:
"The inside lingo had me at hello..."

Guitar 1:
|--------8----------------|
|-----10---10----8----8---|
|--10---------10---10-----|
|-------------------------|x8
|-------------------------|
|-------------------------|

Guitar 2:
|---------------------------------|
|---------------------------------|
|-3~~~-5~~~-------3~~~-5~~~-10~~~-|
|-3~~~-5~~~-3~~~--3~~~-5~~~-10~~~-|
|-1~~~-3~~~-3~~~--1~~~-3~~~--8~~~-|
|-----------1~~~------------------|

Chorus: Both Guitars 1 & 2
 "I want someone Provocative and talkative..."
|-------------------------------|
|-------------------------------|
|-----------5555553333333333----|
|-33333333335555553333333333----|x2
|-33333333333333331111111111----|
|-1111111111--------------------|

Verse 2:
"Her Bonestructure screams..."
Guitar 2 does this 2x and guitar 1 does it 1x
|-----------------------------------------------------|
|-----------------------------------------------------|
|-7-7----7-7-7-5-5----5-5-5--------------3-3----3-3-3-|
|-7-7----7-7-7-5-5----5-5-5-3-3----3-3-3-3-3----3-3-3-|
|-5-5----5-5-5-3-3----3-3-3-3-3----3-3-3-1-1----1-1-1-|
|---------------------------1-1----1-1-1--------------|
  . .    . . . . .    . . . . .    . . . . .    . . .

Still Verse 2:
Then This x1 for gtr 1
|---------------------------------------------------------------|
|---------------------------------------------------------------|
|10-10----10-10-10--9--9-----9--9--9----------------------------|
|10-10----10-10-10-10-10----10-10-10-7-7----7-7-7-8-8----8-8-8--|
|-8--8-----8--8--8--8--8-----8--8--8-8-8----8-8-8-8-8----8-8-8--|
|-----------------------------------(5-5----5-5-5-6-6----6-6-6)-|
  .  .     .  .  .  .  .     .  .  . . .    . . . . .    . . .

Verse 2 Continued...
() are optional
Guitar 1:
|-----------------------|   |--------------------|
|-----------------------|   |--------------------|
|-10-----9--------------|   |-10-----9-----------|
|-10-x8-10-x8-7----8----|x1 |-10-x8-10-x8-3------|
|--8-----8----8-x8-8-x8-|   |--8-----8----3-x16--|
|------------(5)--(6)---|   |-------------1------|
   .     .    .    .           .     .    .

Guitar 2:
|---------------------|   |-----------------|
|---------------------|   |-----------------|
|-7----5---------3----|   |-7----5----------|
|-7-x8-5-x8-3----3-x8-|x1 |-7-x8-5-x8-3-----|
|-5----3----3-x8-1----|   |-5----3----3-x16-|
|-----------1---------|   |-----------1-----|
  .    .    .    .          .    .    .

Both Guitars 1 & 2 Repeat Pre-Chorus

Chorus 2: Both Guitars
 "I want someone Provocative and talkative..."
|-------------------------------|
|-------------------------------|
|-----------5555553333333333----|
|-33333333335555553333333333----|x2
|-33333333333333331111111111----|
|-1111111111--------------------|

"Her Bone Structure Screams..."
|----------------------------|
|----------------------------|
|-77777777555555553333333333-|
|-77777777555555553333333333-|
|-55555555333333331111111111-|
|----------------------------|
"From what I've heard..."
|-----------------------------|
|-----------------------------|
|-----------5555553333333333--|
|-33333333335555553333333333--|
|-33333333333333331111111111--|
|-1111111111------------------|

Post-Chorus:
Guitar 1:

"we all have teeth..."
|--------8----------------|
|-----10---10----8----8---|
|--10---------10---10-----|
|-------------------------|x16
|-------------------------|
|-------------------------|

Guitar 2:
|--------------------------------------|
|--------------------------------------|
|-77777777-33333333--------------------|
|-77777777-33333333-3333333333333333---|x4
|-55555555-11111111-3333333333333333---|
|-------------------1111111111111111---|

Both guitars:
"From what I've Heard..."
|---------------------------------------------------|
|---------------------------------------------------|
|------5~~~-3~~~------5~~~-3-3-3-3-3-3-3-3-3-3-3-3--|
|-3~~~-5~~~-3~~~-3~~~-5~~~-3-3-3-3-3-3-3-3-3-3-3-3--|
|-3~~~-3~~~-1~~~-3~~~-3~~~-1-1-1-1-1-1-1-1-1-1-1-1--|
|-1~~~-----------1~~~---------------------(1-1-1-1)-|
                           . . . . . . . .
Repeat Chorus: Both Guitars

Gtr 1 plays this after 1x of the chorus:
|--------8----------------|
|-----10---10----8----8---|
|--10---------10---10-----|
|-------------------------|x16
|-------------------------|
|-------------------------|

"With skin you'll win..."
Gtr 2:
|------------------|
|------------------|
|------5~~~-3~~~---|
|-3~~~-5~~~-3~~~---|
|-3~~~-3~~~-1~~~---|
|-1~~~-------------|

...END


p.s. Cute Is What We Aim For rocks ;P
Tap to rate this tab
# A B C D E F G H I J K L M N O P Q R S T U V W X Y Z