Song name
# A B C D E F G H I J K L M N O P Q R S T U V W X Y Z

Cute Is What We Aim For - Newport Living tab

Tabbed by: claud
Email: clouded.chaos@yahoo.com

Tuning: standard

x ~ dead string

Intro/Verse

e|-------------------------------------------------------------|
B|-------------------------------------------------------------|
G|--10-10-9-9--------10-10-10-9-9--------10--------------------|
D|---x--x-x-x--then---x--x--x-x-x-(x15)---x--------------------|
A|---8--8-7-7---------8--8--8-7-7---------8--------------------|
E|-------------------------------------------------------------|

(if you lie. . .)

-just bass and drums-

Chorus

e|-------------------------------------------------------------|
B|-------------------------------------------------------------|
G|--5-5-5-5--7-7-7-7-7-7-7-7-7-7-7-7---------------------------|
D|--5-5-5-5--7-7-7-7-7-7-7-7-7-7-7-7-7-7-7-7-7-7-7-7-7-7-7-7---|
A|--3-3-3-3--5-5-5-5-5-5-5-5-5-5-5-5-7-7-7-7-7-7-7-7-7-7-7-7---|
E|-----------------------------------5-5-5-5-5-5-5-5-5-5-5-5---|

e|-------------------------------------------------------------|
B|-------------------------------------------------------------|
G|--3-3-3-3-3-3-3-3-3-3-3-3-5-5-5-5-5-5-5-6-6-6-6-6-6-6--------|
D|--3-3-3-3-3-3-3-3-3-3-3-3-5-5-5-5-5-5-5-6-6-6-6-6-6-6--------|
A|--1-1-1-1-1-1-1-1-1-1-1-1-3-3-3-3-3-3-3-4-4-4-4-4-4-4--------|
E|-------------------------------------------------------------|

Well, that's about all you need to play the song. This may not be exact, but it sounds 
the same as the song.
Tap to rate this tab
# A B C D E F G H I J K L M N O P Q R S T U V W X Y Z