Guitaretab - guitar tabs
Song name
# A B C D E F G H I J K L M N O P Q R S T U V W X Y Z

Cute Is What We Aim For - Finger Twist And Split tab

Artist: Cute Is What We Aim For
Song: Finger Twist And Split
Album: The Same Old Blood Rush With A New Touch
Tabbed by: Rowell


Update: Corrected some stuff.

Tuning: Standard (Capo on the second fret. Notes are capo related)


Note: I did not put the exact rhythm of the song on this tab. But I did try to show when 
certain notes are to be played a little bit. You can just listen to the song to find 
out. Enjoy!

Intro
e|-----------------------------------|
B|-8------7------3------5------3~----|
G|-0------0------0------0------0~----|
D|-x------x------x------x------x~----|
A|-7------5------2------3------2~----|
E|-----------------------------------|

Verse 1:

Eyeliner and a famous designer brand
Your mind is a moment to be stampted
e|-------------------------------|
B|-12-----10------8-----5--------|
G|--0------0------0-----0--------| (2x)
D|--x------x------x-----x--------|
A|-10------9------7-----3--------|
E|-------------------------------|

Express itís tried and true
Just look, look at you
Pretty and perfect due to
e|-------------|
B|-12-----10---|
G|--0------0---| (3x)
D|--x------x---|
A|-10------9---|
E|-------------|

Your steady hand

e|-----|
B|-8---|
G|-0---|
D|-x---|
A|-7---|
E|-----|


Pre chorus:

      Apply that lipgloss like itís your job
e|---------------------------------------------------|
B|--7~-----------8~----------------10~---------------|
G|--0~-----------0~-----------------0~---------------|
D|--x------------x------------------x----------------|
A|--5~-----------7~-----------------9~---------------|
E|---------------------------------------------------|

      You know youíre his heartthrob
e|----------------------------------------|
B|--7~------------------8~--------5~------|
G|--0~------------------0~--------0~------|
D|--x-------------------x---------x-------|
A|--5~------------------7~--------3~------|
E|----------------------------------------|


Chorus:
[ Tab from: http://www.guitaretab.com/c/cute-is-what-we-aim-for/75151.html ]
You wanna know what you got
Iíve got a plan whe canít get caught
And thereís no chance in hell weíll stop
No I think not
e|--------------------------|---------------------|
B|-8------7------3------5---|---3~--5~--7~--/-----|
G|-0------0------0------0---|---0~--0~--0~--/-----|
D|-x------x------x------x---|---x~--x~--x~--------|
A|-7------5------2------3---|---2~--3~--5~--/-----|
E|--------------------------|---------------------|
           (2x)


Verse 2: (Strumming is a little different at this part)
Pinching with a moment so tight
Undone and lookiní just right
No not tonight, No not tonight
e|-------------------------------|
B|-12-----10------8-----5--------|
G|--0------0------0-----0--------|
D|--x------x------x-----x--------| (2x)
A|-10------9------7-----3--------|
E|-------------------------------|

A smeared kiss, A moment missed
Are you afraid
With this (Play the 12 6x and the 10 2x)
e|-------------|
B|-12-----10---|
G|--0------0---| (3x and do above)
D|--x------x---|
A|-10------9---|
E|-------------|

Brige

e|-----------------------------------------------------------|
B|-8---8---10---10---12---12----10---10----------------------|
G|-----------------------------------------------------------|
D|-----------------------------------------------------------|
A|---7---7----9----9----10---10----9----9--------------------|
E|-----------------------------------------------------------|


    Body language is something that you learn
   (Body language is something that you feel)
e|----------------------------------------------------|
B|-5-----------------------------7--------------------|
G|-0-----------------------------0--------------------|
D|-x-----------------------------x--------------------|
A|-3-----------------------------5--------------------|
E|----------------------------------------------------|

   And you just donít get taught, weíll never get caught
  (And itís too real       to be            concealed)
e|---------------------------------------------------------------------------|
B|---------8---------------7------------------3------------------------------|
G|---------0---------------0------------------0------------------------------|
D|---------x---------------x------------------x------------------------------|
A|---------7---------------5------------------2------------------------------|
E|---------------------------------------------------------------------------|


     BodyÖ             JustÖ
  (Strum freely)     (Let ring)
e|-----------------------------------------|
B|----7-----------------7~-----------------|
G|----0-----------------0~-----------------|
D|----x-----------------x------------------|
A|----5-----------------5~-----------------|
E|-----------------------------------------|


Thatís pretty much the whole song. You just play the chorus at the end (:
Related for Finger Twist And Split tab