Song name
# A B C D E F G H I J K L M N O P Q R S T U V W X Y Z

Cute Is What We Aim For - Sweet Talk 101 tab

Cute Is What We Aim For
Sweet Talk 101
2006 Fueled By Ramen Records

Nobody had gotten the whole tab and I wanted to play the whole song so I decided to tab
myself. This is my first tab submission, and it may not sound EXACTLY like the original
it sounds good on both acoustic and electric so what the heck. In the verses where the 
riffs repeat itself, I put the lyrics so you know how long and when to repeat the
Enjoy!

Intro(??): A-Em-F#m-C#m-C#m-D-D-D

Guitar 2:
E|-5---5---4---4---5---5---7---7---|
B|---5---5---5---5---5---5---5---5-|
G|---------------------------------|
D|---------------------------------| x2
A|---------------------------------|
E|---------------------------------|

Verse 1 (x1"You have a jump-a rip in your rep" x2"And everybody knows-so be sure" x3"And
forget you aren't aloud to brag"):
E|---------------------------------|
B|--2(x14)--2--3--5----------------|
G|--2-------2--4--6----------------| x3
D|---------------------------------|
A|---------------------------------|
E|---------------------------------|

E
I just gave myself the shivers
    G                         D
and that's what you get when you think about her
    E
And I just gave myself the shivers
    G                    D
and that's what you get, that's what you get

A
With that facade
D
you can do no wrong
G
Many will enter but few will win
   E          G     D
so please be sure to read the fine print

Interlude:
E|---------------------------------|
B|--2(x14)--2--3--5----------------|
G|--2-------2--4--6----------------|
D|---------------------------------|
A|---------------------------------|
E|---------------------------------|

Verse 2: "I spend more time-more fun anyway"
E|---------------------------------|
B|--2(x12)--5(x12)-----------------|
G|--2(x12)---6(x12)----------------|
D|---------------------------------|
A|---------------------------------|
E|---------------------------------|

"And everybody knows it, but I'm not so proud"
E|---------------------------------|
B|--2(x8)--2--3--5-----------------|
G|--2-------2--4--6----------------|
D|---------------------------------|
A|---------------------------------|
E|---------------------------------|

"And I'll never be the one to brag, to brag about-"
E|---------------------------------|
B|--2(x8)--------1-----------------|
G|--2------------1-----------------|
D|---------------------------------|
A|---------------------------------|
E|---------------------------------|

    E
How I just gave myself the shivers
    G                         D
and that's what you get when you think about her
    E
And I just gave myself the shivers
    G                    D
and that's what you get, that's what you get

A
With that facade
D
you can do no wrong
G
Many will enter but few will win
   E          G     D              E    F#m-D
so please be sure to read the fine print (x2)

Interlude:
A--Bm--E--F#m

    A
The arch in your eyebrows can tell the truth
      Bm
Just imagine what your back could do
        E
and the dance floor where I do my best
F#m
is your, your mattress (x2)

 E
I just gave myself the shivers
    G                         D
and that's what you get when you think about her
    E
And I just gave myself the shivers
    G                    D
and that's what you get, that's what you get

A
With that facade
D
you can do no wrong
G
Many will enter but few will win
   E          G     D
so please be sure to read the fine print

Outro(??): A-Em-F#m-C#m-C#m-D-D-D
Guitar 2:
e|-5---5---4---4---5---5---7---7---|
B|---5---5---5---5---5---5---5---5-|
G|---------------------------------|
D|---------------------------------| x2
A|---------------------------------|
E|---------------------------------|
Tap to rate this tab
# A B C D E F G H I J K L M N O P Q R S T U V W X Y Z