Guitaretab - guitar tabs
Song name
# A B C D E F G H I J K L M N O P Q R S T U V W X Y Z

Cute Is What We Aim For - Risque tab

Hello, spent a night figuring the tabs. Enjoy.
Msg me at joe286we@hotmail.com if there are any doubts or ways you think i can improve the tab.

Tuning: Standard
* = palm mute
/ = slide
\ = slide

Intro: 
e|--0-------0-------0-------0----------------|
B|--0-------0-------0-------0----------------|
G|--9-------9-------9-------9----------------|
D|--9-------9-------7-------9----------------|
A|--7-------7-------7-------9----------------|
E|--0-------9-------5-------7----------------|

Verse Guitar 1: 
e|----------------------------------------------|
B|-----0-------0-------0------------------------|
G|----------------------------------------------|
D|---9---9---9---9---9---9---9---9--------------|x7
A|-0--------------------------------------------|
E|---------7-------0-------9---7----------------|


Verse Guitar 2:
e|----------------------------------------------|
B|----------------------------------------------|
G|---9-8-9-----------8-9-13-11-9/11\9-----------|
D|----------------------------------------------|
A|----------------------------------------------|
E|----------------------------------------------|


Verse to Pre chorus Guitar 1
e|----------------------------------------------|
B|-----0-------0--------------------------------|
G|-------------------99999----------------------|
D|---9---9---9---9---99999----------------------|
A|-0-----------------77777----------------------|
E|---------7---------00000----------------------|
                     *****
[ Tab from: http://www.guitaretab.com/c/cute-is-what-we-aim-for/75860.html ]
Chorus:
[Lead]
e|----------------------------------------------|
B|----------------------------------------------|
G|-9-----11/13\--9----11/13/14----\13\11/16-----|
D|-9 x10-------9 x10-------- x10--------- x10-|
A|-7------9/11\--7-----9/11/12----\11\9 /14-----|
E|---------------9------------------------------|


Bridge:
e|---------------------------------------|
B|---------------------------------------|
G|--13------/14-----\13------/16---------|
D|---- x15-----x15---- x15----- x15-----|
A|--11-----/12------\11------/14---------|
E|---------------------------------------|

e|--------------------------------------------------------|
B|--------------------------------------------------------|
G|--13------/14-----9/11/13-14-14-14-14-14\13-13\11/16----|
D|---- x15-----x10---- -------------------------------x8-|
A|--11-----/12------7/ 9/11-12-12-12-12-12\11-11\ 9/14----|
E|--------------------------------------------------------|

e|---------------------------------------| 
B|---------------------------------------| 
G|---------------------------------------|
D|--------------------------------------| 
A|---------------------------------------| 
E|--555--777--000--99-77-----------------|

3rd Chorus:
e|-0-----0----------------------------------------|
B|-0-----0----------------------------------------|
G|-9-----9-----9999999999999999-9999999999999999--|
D|-9-----9----7777777777777777-9999999999999999--|
A|-7-----7-----7777777777777777-9999999999999999--|
E|-------9-----5555555555555555-7777777777777777--|
	       **************** ****************

3rd Chorus Continued:
e|----------------------------------------------|
B|----------------------------------------------|
G|-9-----11/13\--9----11/13/14----\13\11/16-----|
D|-9 x10-------9 x10-------- x10--------- x10-|
A|-7------9/11\--7-----9/11/12----\11\9 /14-----|
E|---------------9------------------------------|



Last chord:
e|---------|
B|---------|
G|-9-------|
D|-9-------|
A|-7-------|
E|---------|
Related for Risque tab