Song name
# A B C D E F G H I J K L M N O P Q R S T U V W X Y Z

Cute Is What We Aim For - The Fourth Drink Instinct tab

------------------------------------------------------------------------------------------
                    The Fourth Drink Instinct – Cute Is What We Aim For
------------------------------------------------------------------------------------------
Tabbed by: Clintonious
Email: mrmann612@aol.com

Tuning: Standard

Intro/Verse

e:-------0-----0----0----0----0----0---0----0----0----0----0---0---0----0----0---0--|
B:---12---12---12--12--12--12---12--12--10--10--10--10--10--10--10--10--------------|
G:----------------------------------------------------------------------------------|
D:----------------------------------------------------------------------------------|
A:----------------------------------------------------------------------------------|
E:----------------------------------------------------------------------------------|

e:------0---0----0----0----0----0---0----0----0----0----0---0---0--0---0---0--|
B:---9---9----9---9----9----9----9—9------7—7----7---7---4---4--4---4---------|
G:----------------------------------------------------------------------------|
D:----------------------------------------------------------------------------|
A:----------------------------------------------------------------------------|
E:----------------------------------------------------------------------------|

Prechorus:

e:-----------------------------------------------------------------------------------------------------|
B:-----------------------------------------------------------------------------------------------------|
G:------------------------------------9~-----------------------------------------------------------9~--|
D:------11~----------9~------------9~------------9~----------------11~--------9~-----------9~----------|
A:------11~----------9~------------7~------------9~----------------11~--------9~-----------7~----------|
E:-------9~-----------7~---------------------------7~-----------------9~---------7~--------------------|
        “Said…”     “Stand…”   “Didn’t…” “Understand…”  “Said…”   “Stand…”  “Stand…”

Chorus:

e:-----------------------------------------------------------------------------------------|
B:-----------------------------------------------------------------------------------------|
G:-------9999999999999999------------------------------------------------------------------|
D:-------9999999999999999--999999999999999----77777777777777777777777777777777-------------|
A:-------7777777777777777--999999999999999----77777777777777777777777777777777-------------|
E:------------------------------------777777777777777----55555555555555555555555555555555--|
           “What made you..”      “Couldn’t find a…”      “Found that bed so…”

Bridge:


e:-----------------------------------------------------------------------------|
B:-----------------------------------------------------------------------------|
G:--------9---8---9-------9----8-----9-------9-----8-----9------9-----8-----9--|
D:-----------------------------------------------------------------------------|
A:----7-----7---7----7------7-----7------9------9-----9----9-------9-----9-----|
E:------0----------------0--------------------0-------------------0------------|

e:-----------------------------------------------------------------------------|
B:-----------------------------------------------------------------------------|
G:--------6---4---6-------6----4-----6-------9-----8-----9------9-----8-----9--|
D:-----------------------------------------------------------------------------|
A:----0-----0---0----0------0-----0------9------9-----9----9-------9-----9-----|
E:------0----------------0--------------------0-------------------0------------|

e:-------------------------------------------------------------------------|
B:-------------------------------------------------------------------------|
G:----99999999-------------------------------------------------------------|
D:----99999999----------99999999------------77777777--------99999999-------|
A:----77777777----------99999999-------------77777777-------99999999-------|
E:---------------------------77777777-------------55555555-------77777777--|
       “She thought…”   “Buy…”                 “By…”                 “Bottle…”


| /  slide up
| \  slide down
| h  hammer-on
| p  pull-off
| ~  vibrato
| +  harmonic
| x  Mute note
=========================================================================
Tap to rate this tab
# A B C D E F G H I J K L M N O P Q R S T U V W X Y Z