Song name
# A B C D E F G H I J K L M N O P Q R S T U V W X Y Z

Cute Is What We Aim For - Theres A Class For This tab

There’s A Class For This
(Capo on the 6th Fret)
Standard Tuning

...=palm mute

Intro
e|---99----99----99----99999999----99----99—---99----9999------|
B|---99----99----99----99999999----99----99----99----9999------|
G|---------00----------------------------xx--------------------| x2
D|---------------------------------------88--------------------|
A|---88----------99----------------88----------99--------------|
E|---------------------99998888----------------------9988------|

e|---9-9-9-9-9-9-9-9-99999999--------|
B|---9-9-9-9-9-9-9-9-99999999--------|
G|-----------------------------------|x1
D|-----------------------------------|
A|---8-8-8-8-9-9-9-9-----------------|
E|-------------------99998888--------|
	at end of second play this

Verse
e|------9—-9—-9—-9—-9—-9—-9—-9-|	e|-99999999-|
B|------9—-9—-9—-9—-9--9—-9—-9-|	B|-99999999-|
G|-----------------------------|	G|----------|
D|-----------------------------|x4 	D|----------|
A|----888888999999-------------|	A|----------|
E|---------------—999999888888-|	E|-88888888-|
     .. .. .. .. .. .. .. ..   	  at end of 4th time play this

Pre-chorus
e|---99----99----99----99999999----99----99—---99----9999------|
B|---99----99----99----99999999----99----99----99----9999------|
G|---------00----------------------------xx--------------------| x2
D|---------------------------------------88--------------------|
A|---88----------99----------------88----------99--------------|
E|---------------------99998888----------------------9988------|

Chorus
e|---99999999-88888888-99999999-88888888--|
B|---99999999-99999999-99999999-99999999--|
G|------------xxxxxxxx----------88888888--|x4
D|------------88888888--------------------|
A|---88888888----------99999999-----------|
E|------------------------------88888888--|
					Grab with thumb here
2nd guitar (optional) Chorus
e|---9-8-8-9-9-8-8-9-9-8-8-9-9-8-8-9-9-8-9-|
B|----8-8-8-8-8-8-8-8-8-8-8-8-8-8-8-8-8-8--|
G|-----------------------------------------|x4
D|-----------------------------------------|
A|-----------------------------------------|
E|-----------------------------------------|

Post Chorus
e|---9-9-9-9-9-9-9-9-99999999--------|
B|---9-9-9-9-9-9-9-9-99999999--------|
G|-----------------------------------|x1
D|-----------------------------------|
A|---8-8-8-8-9-9-9-9-----------------|
E|-------------------99998888--------|

2nd Verse
e|------9—-9—-9—-9—-9—-9—-9—-9-|  	
B|------9—-9—-9—-9—-9--9—-9—-9-|	
G|-----------------------------|x2	
D|-----------------------------| 	
A|----888888999999-------------|	
E|---------------—999999888888-|	
     .. .. .. .. .. .. .. ..   

e|---9999999999999999—-9—-9—-9—-9-|
B|---9999999999999999—-9—-9—-9—-9-|
G|--------------------------------|x2
D|--------------------------------|
A|---8888888899999999-------------|
E|-------------------999999888888-|
                    .. .. .. .. 

Pre Chorus
e|---99----99----99----99999999----99----99—---99----9999------|
B|---99----99----99----99999999----99----99----99----9999------|
G|---------00----------------------------xx--------------------| x2
D|---------------------------------------88--------------------|
A|---88----------99----------------88----------99--------------|
E|---------------------99998888----------------------9988------|

Chorus
e|---99999999-88888888-99999999-88888888--|
B|---99999999-99999999-99999999-99999999--|
G|------------xxxxxxxx----------88888888--|x4
D|------------88888888--------------------|
A|---88888888----------99999999-----------|
E|------------------------------88888888--|
					Grab with thumb here
2nd guitar (optional) Chorus
e|---9-8-8-9-9-8-8-9-9-8-8-9-9-8-8-9-9-8-9-|
B|----8-8-8-8-8-8-8-8-8-8-8-8-8-8-8-8-8-8--|
G|-----------------------------------------|x4
D|-----------------------------------------|
A|-----------------------------------------|
E|-----------------------------------------|

Post Chorus (after Second)
e|----9~---8~---9~---8~---|
B|----9~---9~---9~---9~---|
G|---------x~--------8~---|
D|---------8~-------------|
A|----8~--------9~--------|
E|-------------------0~---|

Bridge
e|----------------------------------------999-99-888-88-999-99-888-88-|
B|----------------------------------------999-99-999-99-999-99-999-99-|
G|-----------------------------------------------xxx-xx--------888-88-|
D|-------0-------0-------0-------0-------0-------888-88---------------|
A|898-898-898-898-898-898-898-898-898-898-888-88--------999-99--------|
E|---9-------9-------9-------9-------9-------------------------888-88-|

Chorus
e|---99999999-88888888-99999999-88888888--|
B|---99999999-99999999-99999999-99999999--|
G|------------xxxxxxxx----------88888888--|x4
D|------------88888888--------------------|
A|---88888888----------99999999-----------|
E|------------------------------88888888--|
					Grab with thumb here
2nd guitar (optional) Chorus
e|---9-8-8-9-9-8-8-9-9-8-8-9-9-8-8-9-9-8-9-|
B|----8-8-8-8-8-8-8-8-8-8-8-8-8-8-8-8-8-8--|
G|-----------------------------------------|x4
D|-----------------------------------------|
A|-----------------------------------------|
E|-----------------------------------------|

Outro
e|---9—-9-8-8-9-9-8-8-98-9-9-------|
B|----8—-8-8-8-8-8-8-8—-8-8--------|
G|---------------------------------|
D|---------------------------------|
A|---------------------------------|
E|---------------------------------|


Hey this my first tab. IT IS 99% CORRECT!!!!!!!!!!
CUTE IS WHAT WE AIM FOR ROCKS!!!!!!!!!!!!!!!!!
PEACE!!!!!!!!!!!!!!!
Tap to rate this tab
# A B C D E F G H I J K L M N O P Q R S T U V W X Y Z