Song name
# A B C D E F G H I J K L M N O P Q R S T U V W X Y Z

Cute Is What We Aim For - Fourth Drink Instinct tab

Help us improve GuitareTab! Take a short survey!
Origanly Tabbed By: Clintonious
Re-alligned by me

Intro

:-------0----0----0----0----0----0----0----0----0----0----0----0----0----0----0----0----|
B:---12---12---12---12---12---12---12---12---10---10---10---10---10---10---10--10-------|
G:--------------------------------------------------------------------------------------|
D:--------------------------------------------------------------------------------------|
A:--------------------------------------------------------------------------------------|
E:--------------------------------------------------------------------------------------|

e:-----0----0----0----0----0----0----0----0----0----0----0---0---0---0-----0----|
B:---9---9---9---9---9---9---9---9---7--—7---7----7---4---4---4---4-------------|
G:------------------------------------------------------------------------------|
D:------------------------------------------------------------------------------|
A:------------------------------------------------------------------------------|
E:------------------------------------------------------------------------------|

Prechorus:

e:-----------------------------------------------------------------------------------------------------|
B:-----------------------------------------------------------------------------------------------------|
G:---------------------------------9~------------------------------------------------------9~----------|
D:------11~----------9~------------9~------------9~----------------11~--------9~-----------9~----------|
A:------11~----------9~------------7~------------9~----------------11~--------9~-----------7~----------|
E:-------9~----------7~--------------------------7~-----------------9~--------7~-----------------------|
        “Said…”     “Stand…”   “Didn’t…” “Understand…”  “Said…”   “Stand…”  “Stand…”

Chorus:

e:-------------------------------------------------------------------------------|
B:-------------------------------------------------------------------------------|
G:-------9999999999999999--------------------------------------------------------|
D:-------9999999999999999--999999999999999--7777777777777777--7777777777777777---|
A:-------7777777777777777--999999999999999--7777777777777777-- 7777777777777777--|
E:-------------------------777777777777777--5555555555555555-- 5555555555555555--|
        “What made you..” “Couldn’t find a…” Found that bed so…”

Bridge:


e:-----------------------------------------------------------------------------|
B:-----------------------------------------------------------------------------|
G:--------9---8---9-------9----8-----9------9-----8-----9-------9----8----9----|
D:-----------------------------------------------------------------------------|
A:----7-----7---7----7------7-----7-----9------9-----9------9------9----9------|
E:------0----------------0----------------0-------------------0----------------|

e:-----------------------------------------------------------------------------|
B:-----------------------------------------------------------------------------|
G:--------6---4---6-------6----4-----6-------9-----8----9-------9-----8-----9--|
D:-----------------------------------------------------------------------------|
A:----0-----0---0----0------0-----0------9------9-----9----9-------9-----9-----|
E:------0---------------0-------------------0-----------------0----------------|

Ending

e:------------------------------------------------------------------------|
B:------------------------------------------------------------------------|
G:----9-9-9-9-9-9-9-9-----------------------------------------------------|
D:----9-9-9-9-9-9-9-9--9-9-9-9-9-9-9-9--7-7-7-7-7-7-7-7--9-9-9-9-9-9-9-9--|
A:----7-7-7-7-7-7-7-7--9-9-9-9-9-9-9-9--7-7-7-7-7-7-7-7--9-9-9-9-9-9-9-9--|
E:---------------------7-7-7-7-7-7-7-7--5-5-5-5-5-5-5-5--7-7-7-7-7-7-7-7--|
       “She                                                                 thought…”    
     “Buy…”     “By…”                 “Bottle…”

Intro x3
Prechorus
Chorus x2
Intro x3
Chorus x2
Bridge
Ending x3 (guitar 2 continues with bridge)
Chorus x2
Prechorus
Related for Fourth Drink Instinct tab