Song name
# A B C D E F G H I J K L M N O P Q R S T U V W X Y Z

Cute Is What We Aim For - Forth Drink Instinct tab

okay i was looking through all the tabs for this song they all make this song soo much
then it really is soo i thought i would show you the best sounding and easyest way to
this song off !!!i have played this song for a long time soo trust me .. the only thing 
the way i am setting it up might seem a little weird but everytime there is a new set that
means move your fingers


have fun !!


E-----0---0----0----0----0----0----0-----|
B--12---12--12---12---12---12---12-------|
G----------------------------------------|
D----------------------------------------|
A----------------------------------------|
E----------------------------------------|

E-----0----0----0----0----0----0---------|
B--10---10---10---10---10---10---10------|
G----------------------------------------|
D----------------------------------------|
A----------------------------------------|
E----------------------------------------|

E----0---0---0---0---0---0---0-----------|
B--9---9---9---9---9---9---9-------------|
G----------------------------------------|
D----------------------------------------|
A----------------------------------------|
E----------------------------------------|

E----0---0---0---0-----------------------|
B--7---7---7---7-------------------------|
G----------------------------------------|
D----------------------------------------|
A----------------------------------------|
E----------------------------------------|

E----0---0---0---0-----------------------|
B--4---4---4---4-------------------------|
G----------------------------------------|
D----------------------------------------|
A----------------------------------------|
E----------------------------------------|


and you repeat this twice


if you need anymore help you can contact me at


myspace.com/jordanandbobo
xPatches
Tap to rate this tab
 
# A B C D E F G H I J K L M N O P Q R S T U V W X Y Z