Song name
# A B C D E F G H I J K L M N O P Q R S T U V W X Y Z

Cute Is What We Aim For - Teasing To Please Live Acoustic tab

ok this is for the tab of teasing to please off of the P.V.G(punk video guys) video. its 
and an amazing song so have fun with it. 2 acoustic guitars

guitar 1 intro/verse x3(mostly same as electric thanks for this part)
e|----------------------------------------------------|
B|-10-10-10-10--10-10-10-10--12-12-12-12--10-10-10-10-|
G|--x--x--x--x---x--x--x--x---x--x--x--x---x--x--x--x-|
D|--x--x--x--x---x--x--x--x---x--x--x--x---x--x--x--x-|
A|-10-10-10-10--10-10-10-10--10-10-10-10--10-10-10-10-|
E|----------------------------------------------------|

e|----------------------------------------------------|
B|-10-10-10-10--10-10-10-10--12-12-12-12--10-10-10-10-|
G|--x--x--x--x---x--x--x--x---x--x--x--x---x--x--x--x-|
D|--x--x--x--x---x--x--x--x---x--x--x--x---x--x--x--x-|
A|--9--9--9--9---9--9--9--9---9--9--9--9---9--9--9--9-|
E|----------------------------------------------------|

e|---------------------------------------------------|
B|--8-8-8-8--8-8-8-8--10-10-10-10---8-8-8-8----------|
G|--x-x-x-x--x-x-x-x---x--x--x--x---x-x-x-x----------|
D|--x-x-x-x--x-x-x-x---x--x--x--x---x-x-x-x----------|
A|--7-7-7-7--7-7-7-7---7--7--7--7---7-7-7-7----------|
E|---------------------------------------------------|

e|---------------------------------------------------|
B|--8-8-8-8--8-8-8-8--8-8-8-8--8-8-8-8---------------|
G|--x-x-x-x--x-x-x-x--x-x-x-x--x-x-x-x---------------|
D|--x-x-x-x--x-x-x-x--x-x-x-x--x-x-x-x---------------|
A|--x-x-x-x--x-x-x-x--7-7-7-7--x-x-x-x---------------|
E|--8-8-8-8--8-8-8-8-----------8-8-8-8---------------|

guitar 2 verse x2(comes in after guitar one has gone once)
e|-------------------------------------|
B|--3-3-3-3--3-3-3-3--3-3-3-3--3-3-3-3-|
G|--0-0-0-0--0-0-0-0--0-0-0-0--0-0-0-0-|
D|--0-0-0-0--0-0-0-0--0-0-0-0--0-0-0-0-|
A|--2-2-2-2--2-2-2-2--2-2-2-2--2-2-2-2-|
E|--3-3-3-3--3-3-3-3--3-3-3-3--3-3-3-3-|

e|-------------------------------------|
B|--3-3-3-3--3-3-3-3--3-3-3-3--3-3-3-3-|
G|--2-2-2-2--2-2-2-2--2-2-2-2--2-2-2-2-|
D|--0-0-0-0--0-0-0-0--0-0-0-0--0-0-0-0-|
A|--0-0-0-0--0-0-0-0--0-0-0-0--0-0-0-0-|
E|--2-2-2-2--2-2-2-2--2-2-2-2--2-2-2-2-|

e|-------------------------------------|
B|--3-3-3-3--3-3-3-3--3-3-3-3--3-3-3-3-|
G|--0-0-0-0--0-0-0-0--0-0-0-0--0-0-0-0-|
D|--2-2-2-2--2-2-2-2--2-2-2-2--2-2-2-2-|
A|--2-2-2-2--2-2-2-2--2-2-2-2--2-2-2-2-|
E|--0-0-0-0--0-0-0-0--0-0-0-0--0-0-0-0-|

e|-------------------------------------|
B|--3-3-3-3--3-3-3-3--3-3-3-3--3-3-3-3-|
G|--0-0-0-0--0-0-0-0--0-0-0-0--0-0-0-0-|
D|--2-2-2-2--2-2-2-2--2-2-2-2--2-2-2-2-|
A|--3-3-3-3--3-3-3-3--3-3-3-3--3-3-3-3-|
E|--0-0-0-0--0-0-0-0--0-0-0-0--0-0-0-0-|

guitar 1 pre-chorus x2(again same as electric)
e|-------------------------------------|
B|--10-12-10--10-12-10--8-10-8--8-8-10-|
G|-------------------------------------|
D|-------------------------------------|
A|--10-10-10---9--9--9--7--7-7----7-10-|
E|------------------------------8------|

guitar 2 pre-chorus(played really soft)
   caus.........back......
e|------------------------------------|
B|--3~-----------3~-------------------|
G|--0~-----------0~-------------------|
D|--0~-----------0~-------------------|
A|--2~-----------2~-------------------|
E|--3~-----------3~-------------------|

chorus both guitars( ok i might be a little off on the strumming)
e|--------------------------------------------------|
B|--3--3-3-3-3--3--3-3-3-3--3--3-3-3-3--3--3-3-3-3--|
G|--0--0-0-0-0--0--0-0-0-0--2--2-2-2-2--2--2-2-2-2--|
D|--0--0-0-0-0--0--0-0-0-0--0--0-0-0-0--0--0-0-0-0--|
A|--2--2-2-2-2--2--2-2-2-2--2--2-2-2-2--2--2-2-2-2--|
E|--3--3-3-3-3--3--3-3-3-3--3--3-3-3-3--3--3-3-3-3--|

e|--------------------------------------------------|
B|--3--3-3-3-3--3--3-3-3-3--3--3-3-3-3--3--3-3-3-3--|
G|--2--2-2-2-2--2--2-2-2-2--0--0-0-0-0--0--0-0-0-0--|
D|--0--0-0-0-0--0--0-0-0-0--2--2-2-2-2--2--2-2-2-2--|
A|--0--0-0-0-0--0--0-0-0-0--3--3-3-3-3--2--2-2-2-2--|
E|--2--2-2-2-2--2--2-2-2-2--------------------------|

guitar 1 post chorus(i might be a little off just mess around with it)
e|----------------------------------|
B|----3--3-----3--3-----3--3----3---|
G|---0--0-0---0--0-0---0--0-0--00---|
D|---------0--------0--------0--0---|
A|--2--2-----2--2-----2--2----2-2---|
E|------------------------------3---|

guitar 1 verse 2( pretty shakey on this part)
e|-------------------------------------|
B|--3-3-3-3--3-3-3-3--3-3-3-3--3-3-3-3-|
G|--0-0-0-0--0-0-0-0--0-0-0-0--0-0-0-0-|
D|--0-0-0-0--0-0-0-0--0-0-0-0--0-0-0-0-|
A|--2-2-2-2--2-2-2-2--2-2-2-2--2-2-2-2-|
E|--3-3-3-3--3-3-3-3--3-3-3-3--3-3-3-3-|

e|-------------------------------------|
B|--7-7-7-7--7-7-7-7--7-7-7-7--7-7-7-7-|
G|--0-0-0-0--0-0-0-0--0-0-0-0--0-0-0-0-|
D|--0-0-0-0--0-0-0-0--0-0-0-0--0-0-0-0-|
A|--x-x-x-x--x-x-x-x--x-x-x-x--x-x-x-x-|
E|--5-5-5-5--5-5-5-5--5-5-5-5--5-5-5-5-|

e|-------------------------------------|
B|--8-8-8-8--8-8-8-8--8-8-8-8--8-8-8-8-|
G|--0-0-0-0--0-0-0-0--0-0-0-0--0-0-0-0-|
D|--7-7-7-7--7-7-7-7--7-7-7-7--7-7-7-7-|
A|--7-7-7-7--7-7-7-7--7-7-7-7--7-7-7-7-|
E|-------------------------------------|

e|-------------------------------------|
B|--3-3-3-3--3-3-3-3--3-3-3-3--3--3--3-|
G|--0-0-0-0--0-0-0-0--0-0-0-0--0--0--0-|
D|--2-2-2-2--2-2-2-2--2-2-2-2--2--2--2-|
A|--2-2-2-2--2-2-2-2--2-2-2-2--2--2--2-|
E|-------------------------------------|

e|----------------------------------------------------|
B|-10-10-10-10--10-10-10-10--12-12-12-12--10-10-10-10-|
G|--x--x--x--x---x--x--x--x---x--x--x--x---x--x--x--x-|
D|--x--x--x--x---x--x--x--x---x--x--x--x---x--x--x--x-|
A|-10-10-10-10--10-10-10-10--10-10-10-10--10-10-10-10-|
E|----------------------------------------------------|

e|---------------------------------------------------|
B|-10-10-10-10--10-10-10-10--12-12-12-12--10--10--10-|
G|--x--x--x--x---x--x--x--x---x--x--x--x---x---x---x-|
D|--x--x--x--x---x--x--x--x---x--x--x--x---x---x---x-|
A|--9--9--9--9---9--9--9--9---9--9--9--9---9---9---9-|
E|---------------------------------------------------|


e|---------------------------------------------------|
B|--8-8-8-8--8-8-8-8--10-10-10-10---8-8-8-8----------|
G|--x-x-x-x--x-x-x-x---x--x--x--x---x-x-x-x----------|
D|--x-x-x-x--x-x-x-x---x--x--x--x---x-x-x-x----------|
A|--7-7-7-7--7-7-7-7---7--7--7--7---7-7-7-7----------|
E|---------------------------------------------------|

e|---------------------------------------------------|
B|--8-8-8-8--8-8-8-8--8-8-8-8--8~--------------------|
G|--x-x-x-x--x-x-x-x--x-x-x-x--x~--------------------|
D|--x-x-x-x--x-x-x-x--x-x-x-x--x~--------------------|
A|--x-x-x-x--x-x-x-x--7-7-7-7--x~--------------------|
E|--8-8-8-8--8-8-8-8-----------8~--------------------|

guitar 2 verse 2 x2(the 2 guitars have diffrent patterns in the begining)
e|---------------------------------------------------|
B|--3-3-3-3--3-3-3-3--3-3-3-3--3--3--3---------------|
G|--0-0-0-0--0-0-0-0--0-0-0-0--0--0--0---------------|
D|--0-0-0-0--0-0-0-0--0-0-0-0--0--0--0---------------|
A|--2-2-2-2--2-2-2-2--2-2-2-2--2--2--2---------------|
E|--3-3-3-3--3-3-3-3--3-3-3-3--3--3--3---------------|

e|---------------------------------------------------|
B|--3-3-3-3--3-3-3-3--3-3-3-3--3--3--3---------------|
G|--2-2-2-2--2-2-2-2--2-2-2-2--2--2--2---------------|
D|--0-0-0-0--0-0-0-0--0-0-0-0--0--0--0---------------|
A|--0-0-0-0--0-0-0-0--0-0-0-0--0--0--0---------------|
E|--2-2-2-2--2-2-2-2--2-2-2-2--2--2--2---------------|

e|---------------------------------------------------|
B|--3-3-3-3--3-3-3-3--3-3-3-3--3--3--3---------------|
G|--0-0-0-0--0-0-0-0--0-0-0-0--0--0--0---------------|
D|--2-2-2-2--2-2-2-2--2-2-2-2--2--2--2---------------|
A|--3-3-3-3--3-3-3-3--3-3-3-3--3--3--3---------------|
E|---------------------------------------------------|

e|---------------------------------------------------|
B|--3-3-3-3--3-3-3-3--3-3-3-3--3--3--3---------------|
G|--0-0-0-0--0-0-0-0--0-0-0-0--0--0--0---------------|
D|--2-2-2-2--2-2-2-2--2-2-2-2--2--2--2---------------|
A|--2-2-2-2--2-2-2-2--2-2-2-2--2--2--2---------------|
E|---------------------------------------------------|

then chorus(same as the first chorus for both guitars)

guitar 1 bridge

e|-------------------------------------|
B|--3-3-3-3--3-3-3-3--7-7-7-7--8-8-8-8-|
G|--0-0-0-0--0-0-0-0--0-0-0-0--0-0-0-0-|
d|--2-2-2-2--2-2-2-2--6-6-6-6--6-6-6-6-|(play 4 times then)
A|--3-3-3-3--3-3-3-3--7-7-7-7--7-7-7-7-|
E|-------------------------------------|

e|-------------------------------------|
B|--3-3-3-3-3-3---3-3-3----------------|
G|--0-0-0-0-0-0---0-0-0----------------|
D|--2-2-2-2-2-2---2-2-2----------------|
A|--3-3-3-3-3-3---3-3-3----------------|
E|-------------------------------------|

guitar 2 bridge

e|-------------------------------------|
B|--3-3-3-3--3-3-3-3--7-7-7-7--8-8-8-8-|
G|--0-0-0-0--0-0-0-0--0-0-0-0--0-0-0-0-|
D|--2-2-2-2--2-2-2-2--6-6-6-6--6-6-6-6-|(play 2 times then)
A|--3-3-3-3--3-3-3-3--7-7-7-7--7-7-7-7-|
E|-------------------------------------|

e|-----------------------------------------------------|(idk exactly but its
B|--10-10-10-10--10-10-10-10--10-10-10-10--10-10-10-10-|somthing aorund here
G|---x--x--x--x---x--x--x--x---x--x--x--x---x--x--x--x-|play 2 times lastly)
D|---x--x--x--x---x--x--x--x---x--x--x--x---x--x--x--x-|
A|--10-10-10-10--10-10-10-10--10-10-10-10--10-10-10-10-|
E|-----------------------------------------------------|

e|-----------------------------------------------------|
B|--10-10-10-10-10-10---10-10-10-10-10-10--------------|
G|---x--x--x--x--x--x----x--x--x--x--x--x--------------|
D|---x--x--x--x--x--x----x--x--x--x--x--x--------------|
A|--10-10-10-10-10-10---10-10-10-10-10-10--------------|
E|-----------------------------------------------------|

then pre-chorus
then chorus

outro 1 guitar(a little shakey here but its played light)
  im...comes...run for my money honeyyy
e|----------------------------------------|
B|3~----3~-----3~------3-----3---3-3-3----|
G|0~----0~-----0~------2-----2---2-0-0----|
D|0~----0~-----0~------0-----0---0-2-2----|
A|2~----2~-----2~------0-----0---0-3-2----|
E|3~----3~-----3~------2-----2---2--------|

well thats it. if any comments or questions email me at  mikeweidner38@yahoo.com
Tap to rate this tab
 
# A B C D E F G H I J K L M N O P Q R S T U V W X Y Z