Song name
# A B C D E F G H I J K L M N O P Q R S T U V W X Y Z

Cutting Crew - I Just Died In Your Arms tab

I just died in your arms tonight-The Cutting Crew
Tabbed by Igi”Igikorn”Manaloto
April 7, 2007
standard tuning

I could barely hear the guitar but still, I was able to tab a few of those
Uhm, the numbers on top denote when the tabs were actually played
Example: 0:30 would mean that the tab was played on the 30th second of the song.
Listen to the song carefully to get the timing...
I'll be providing another video for this one in youtube. Just search for the title of 
song.

Enjoy and long live The 80’s! For the chords, I have my own which I use but I would
suggest that you use the 5 star chord section(tab) of this same song. Actually, the song
an electric guitar which is plucked. You could sometimes hear strumming but very seldom. 
main instrument used was the organ or keyboard which makes it harder for the guitars to heard..

0:30, 0:42, 0:56, 1:46,
---------5------------5------7----------|
------------------------------7---------|
-----7------------7---------------------|
-7------------7-------------------------|
----------------------------------------|
----------------------------------------|

1:39
-7-7-------------------------------------------------7-7-7--------|
-------7-7---10-10----------------------------------- 7-7---------|
-----------------------9-9--11-11-7-7--9p7---------7-7------------|
-------------------------------------------------9----------------|
------------------------------------------------------------------|
------------------------------------------------------------------|

2:03
--12------------------------------------------------------------|
------10--9---10p9h10-------------------------------------------|
----------------------------------------------------------------|
----------------------------------------------------------------|
----------------------------------------------------------------|
----------------------------------------------------------------|

2:06
-7-7------------------------------------------------------------|
------7-7--10-10------------------------------------------------|
--------------------9-9--11-11--7-7--9-9------------------------| x2
----------------------------------------------9-9---------------|
----------------------------------------------------------------|
----------------------------------------------------------------|


3:08 (solo)
--14-----------------------12------------------------------------------------------|
------12-----------------------10---------2-0---2-2---2-0---0----------------------|
--------------14--------------------------------2------------2---------------------|
-------------------12--------------------------------------------------------------|
-----------------------------------------------------------------------------------|
-----------------------------------------------------------------------------------|


3:16
----------------------------------------------------------------|
----3---5---3---5---3------2------------------------------------|
------4---4---4---4------4------4--2----------------------------|
----------------------------------------------------------------|
----------------------------------------------------------------|
----------------------------------------------------------------|

There, the ones next to this are already adlib but I think that the part uses the first
frets and slides down from the highest string to the thickest one.(it’s like an octave,
lower and lower.)

If you guys know anymore or can add up to this piece, I would really appreciate it cause
song is really wonderful. Please! Add up! Help me complete the piece!

Or you can send me email regarding this
igikorn@gmail.com


comments are also welcome
Tap to rate this tab
# A B C D E F G H I J K L M N O P Q R S T U V W X Y Z