Song name
# A B C D E F G H I J K L M N O P Q R S T U V W X Y Z

Cutting Crew - Just Died In Your Arms tab

Help us improve GuitareTab! Take a short survey!
this song is allso done by journey

by max schofield
email: maxstunner100@hotmail.com
rock and roll!
Tuning: normal

first part and through song:
e|-------------------------------------------------------------------------|
B|----------------10---------------10---12---------------------------------|
G|------------------------------------------11-----------------------------|
D|---------11h12------------11h12------------------------------------------|
A|-------------------------------------------------------------------------|
E|-------------------------------------------------------------------------|

Fill  {> palm mute all:                                   <}reapeat
e|---------------------------------------------------------------10x-------|
B|------12-12--10-10---------------------------------------------12b-------|
G|-------------------12-12--11-11--9-9-------------------------------------|
D|--------------------------------------12-12--11-11--9-9------------------|
A|-------------------------------------------------------------------------|
E|-------------------------------------------------------------------------|

solo:
e|--14------12--------13---------------------------------------------------|
B|-----12v------10v------12----10------------------------------------------|
G|-----------------------------9b-r---9brp7-9-9-----9b-r-p7----------------|
D|-----------------------------------------------9-----------9v------------|
A|-------------------------------------------------------------------------|
E|-------------------------------------------------------------------------|

there a little more but its very easy and in the same mode and key if you really want it 
me or find another tab cause i cant be bothered at the mo!

if you have bebo go to http://thebeermen2.bebo.com and add us
Related for Just Died In Your Arms tab