Song name
# A B C D E F G H I J K L M N O P Q R S T U V W X Y Z

Cv Jorgensen - Costa Del Sol tab

First solo:
-----------------------------------------------------------|
-11/13-----11--11----10-11-10------------------------------|
-----------------------------------------------------------|
--------------------------------10--10---------------------|
-----------------------------------------------------------|
-----------------------------------------------------------|

-----------------------------------------------------------|
-----------------------------------------------------------|
-----------------------------------------------------------|
----------7-8-10-12-10-------8-7---------------------------|
-8-8-8-10--------------10-10-----8-------------------------|
-----------------------------------8-8---------------------|

-----------------------------------------------------------|
-------------------------------10-11-10---13---13----------|
-----------------------9-10-12-----------------------------|
-------------7-8-10-12-------------------------------------|
------7-8-10-----------------------------------------------|
-8-10------------------------------------------------------|


Ending/second solo:
-----------------------------------------------------------|
-11/13-----11--11----10-11-10------------------------------|
-----------------------------------------------------------|
--------------------------------10--10---------------------|
-----------------------------------------------------------|
-----------------------------------------------------------|

-----------------------------------------------------------------------------|
------------------------------------------------------------10-11-10---8/10--|
-----------------------------------------------------9-10-12-----------------|
----------7-8-10-12-10-------8-7------------7-8-10-12------------------------|
-8-8-8-10--------------10-10-----8----7-8-10---------------------------------|
----------------------------------8-10---------------------------------------|
Tap to rate this tab
 
# A B C D E F G H I J K L M N O P Q R S T U V W X Y Z