Song name
# A B C D E F G H I J K L M N O P Q R S T U V W X Y Z

Cyaneed - Doedsmaskin tab

Help us improve GuitareTab! Take a short survey!
e--------------------------------------------|
B--------------------------------------------|
G--------------------------------------------| x 2
D---------7-9--------------------------------|
A-----9-9-----7-7-7-5-5-5-0------------------|
E-7--7---------------------------------------|

e--------------------------------------------------|
B--------------------------------------------------|
G--------------------------------------------------| x 1
D---------7----------------------------------------|
A-----9-9---9-7-5---------------5------------------|
E-7--7------------7-5-7-7-5-5-7---2-2-2-2-2-2-2----|
Related for Doedsmaskin tab