Cyaneed - Offside tab

This tab is in Drop D.


Intro/chorus

|------------------------------------------------------------------|
|------------------------------------------------------------------|
|------------------------------------------------------------------|
|------------------------------10--12--10--------------------------|
|-----------------12--10--12----------------12--10-----------------|
|--7---10--7-------------------------------------------------------|   x3

|------------------------------------------------------------------|
|------------------------------------------------------------------|
|------------------------------------------------------------------|
|------------------------------10--12--14--14--14--14--14--14--14--|
|-----------------12--10--12---------------------------------------|
|--7---10--7-------------------------------------------------------|    x1

-->Repeat intro again<--

Verse

|------------------------------------------------------------------|
|------------------------------------------------------------------|
|------------------------------------------------------------------|
|--7----7------7--7------10--10--10---5----5--5--------------------|
|--7----7------7--7------10--10--10---5----5--5--------------------|
|--7----7------7--7------10--10--10---5----5--5--------------------|     x3

|------------------------------------------------------------------|
|------------------------------------------------------------------|
|------------------------------------------------------------------|
|--7------7---7---7---7---7---7---7---7---7---7--------------------|
|--7------7---7---7---7---7---7---7---7---7---7--------------------|
|--7------7---7---7---7---7---7---7---7---7---7--------------------|      x1


-->Repeat Verse again<--

-Chorus
-Verse    (Leave 1 line length before the last line)
-Chorus   (Do not repeat a second time)

|------------------------------------------------------------------|
|------------------------------------------------------------------|
|------------------------------------------------------------------|
|------------------------------------------------------------------|
|------------------------------------------------------------------|
|--7---10--7-------------------------------------------------------|      x3

|------------------------------------------------------------------|
|------------------------------------------------------------------|
|------------------------------------------------------------------|
|------------------------------------------------------------------|
|--5--5--5--5--5--5--5--5------------------------------------------|      x1

-->Repeat this again<--

-Chorus   (Repeat 5 more times)

Ending
Simply.
|------------------------------------------------------------------|
|------------------------------------------------------------------|
|------------------------------------------------------------------|
|------------------------------------------------------------------|
|------------------------------------------------------------------|
|-7----------------------------------------------------------------|
Tap to rate this tab
 
# A B C D E F G H I J K L M N O P Q R S T U V W X Y Z