Song name
# A B C D E F G H I J K L M N O P Q R S T U V W X Y Z

Cycle Sluts From Hell - I Wish You Were A Beer tab

Cycle Sluts From Hell - I Wish You Were A Beer

Intro
e|--------7--10--15--|
b|-----8-------------|
g|--9----------------|
d|-------------------|
a|-------------------|
E|-------------------|

Verse
e|-----------------|
b|-----------------|
g|-----------------|
d|--2--2--5--8--7--|
a|--2--2--5--8--7--|
E|--0--0--3--6--5--|
Pm     .

Chorus
e|--------|
b|--------|
g|-----6--|
d|--2--6--|
a|--2--4--|
E|--0-----|

After Chorus and Spoken Part
e|-----------|
b|-----------|
g|--6--------|
d|--6--8--2--|
a|--4--8--2--|
E|-----6--0--|
Tap to rate this tab
# A B C D E F G H I J K L M N O P Q R S T U V W X Y Z