Song name
# A B C D E F G H I J K L M N O P Q R S T U V W X Y Z

Cyclefly - Whore tab

Cyclefly - Whore

P. 1 Verse 1
e-----------------------------|
B-----------------------------|
G-8-----78-----6--------8 x 3-|
D-8-----78-----4--------6-----|
A-6-----56-----4--------6-----|
E-----------------------------|

I sit and wait for hours, my destiny abused
Climb into your tower, all covered up in blue

You might as well be asking me

P. 2 Chorus

e------------------------|
B------------------------|
G-5-----45----45---------| x 2
D-5-----45----45---------|
A-3-----23----25---------|
E------------------------|

Would you be my, would you be my whore?
Would you be my, would you be my whore?

P. 3 Verse 2
e-----------------------------|
B-----------------------------|
G-8-----78-----6--------8 x 3-|
D-8-----78-----4--------6-----|
A-6-----56-----4--------6-----|
E-----------------------------|

I contemplate the daybreak, its bottled up inside
I'm waiting on the daybreak, with shadows in my mind

You might as well be asking me

P. 4 Chorus

e------------------------|
B------------------------|
G-5-----45----45---------| x 2
D-5-----45----45---------|
A-3-----23----25---------|
E------------------------|

Would you be my, would you be my whore?
Would you be my, would you be my whore?

P. 5 Verse 3

e------------------------|
B------------------------|
G-7--6--4----------------| continue till end
D-7--6--4----------------|
A-5--5--2----------------|
E------------------------|

Just for the daytime, just for a while, and make me smile
If I could make you smile
Tap to rate this tab
 
# A B C D E F G H I J K L M N O P Q R S T U V W X Y Z