Guitaretab - guitar tabs
Song name
# A B C D E F G H I J K L M N O P Q R S T U V W X Y Z

Cyclefly - Karma Killer tab

Karma Killer
Cyclefly
Crave
Tabbed by: zoastev (zoastev@yahoo.com)



Tunning: C# G# C# F# A# D#


Intro:
Gtr. 1
|------------------------|
|------------------------|
|------------------------|   x2
|-3-5-6-8h11---3-5-6-2---| 
|-3-5-6-8h11---3-5-6-2---|
|-3-5-6-8h11---3-5-6-2---|

Gtr. 2
|------------5-------------|
|--------5b----------------|
|--------x-----------------|  x4
|--3-----2b----------------|
|--3-----------------------|
|--3-----------------------|


Verse (x2):
|---------5-----------5---------5---|       |--------------|  |------------|
|-----------------------------------|       |-------5b-----|  |------------|
|-----------------------------------| then  |-------x------|  |------------|
|--3-5-x------3-5-xx-------3-5------|       |--3-5--2b--*5-|  |-3--5--6--2-|
|--3-5-x------3-5-xx-------3-5------|       |--3-5---------|  |-3--5--6--2-|
|--3-5-x------3-5-xx-------3-5------|       |--3-5---------|  |-3--5--6--2-|
                                                 2nd time verse ending ^

Pre Chorus:

|-------------|
|-------------|
|-------------|
|-8888888-----|
|-8888888-----|
|-8888888-----|

[ Tab from: http://www.guitaretab.com/c/cyclefly/78718.html ]
Chorus:
|-----3-----5------6------1------3------5------6------|
|-------3-----5------6------1------3------5------6----|
|--5------7------8------3------5------7------8-----10-|
|--5------7------8------3------5------7------8-----10-|
|--3------5------6------1------3------5------6-----8--|
|-----------------------------------------------------|


Bridge:

Gtr. 1
|------------------------------------------------------------|
|------------------------------------------------------------|
|------------------------------------------------------------|
|--88888888-------66666666/10101010101010--6666666666666-----|
|--99999999-------66666666/10101010101010--6666666666666-----|
|-----------------66666666/10101010101010--6666666666666-----|

Gtr. 2                
|--------------------8-------------8---6--7----8--------------|
|-----------------------8---6--------------------8---6--------|
|--4-4--4-4------------------5--0---------------------5--0----|
|--4-4--4-4--(x4)---------------------------------------------|
|--2-2--2-2---------------------------------------------------|
|-------------------------------------------------------------|
                     background noises ^



Order
Intro
Verse
Pre Chorus
Chorus
Intro chords (Gtr.1 chords x1 Gtr. 2 chords x2)
Verse
Pre Chorus
Chorus x2
Bridge
Chorus x2
Outro(chorus chords x4)
Related for Karma Killer tab
×
Karma Killer